ISO-10303-21;
HEADER;
FILE_DESCRIPTION (( 'STEP AP203' ),
    '1' );
FILE_NAME ('6712.STEP',
    '2023-02-13T08:47:11',
    ( '' ),
    ( '' ),
    'SwSTEP 2.0',
    'SolidWorks 2019',
    '' );
FILE_SCHEMA (( 'CONFIG_CONTROL_DESIGN' ));
ENDSEC;

DATA;
#1 =( NAMED_UNIT ( * ) PLANE_ANGLE_UNIT ( ) SI_UNIT ( $, .RADIAN. ) );
#2 = CALENDAR_DATE ( 2023, 13, 2 ) ;
#3 = APPROVAL_PERSON_ORGANIZATION ( #151, #192, #57 ) ;
#4 = ADVANCED_FACE ( 'NONE', ( #8 ), #20, .T. ) ;
#5 = CARTESIAN_POINT ( 'NONE',  ( 11.00000000000000000, 1.347111479062088405E-15, 0.000000000000000000 ) ) ;
#6 = DIRECTION ( 'NONE',  ( 0.000000000000000000, 0.000000000000000000, 1.000000000000000000 ) ) ;
#7 = PLANE ( 'NONE',  #232 ) ;
#8 = FACE_OUTER_BOUND ( 'NONE', #240, .T. ) ;
#9 = CARTESIAN_POINT ( 'NONE',  ( 8.500000000000000000, 1.040949779275250140E-15, 7.000000000000000000 ) ) ;
#10 = AXIS2_PLACEMENT_3D ( 'NONE', #127, #202, #238 ) ;
#11 = DIRECTION ( 'NONE',  ( 0.000000000000000000, 0.000000000000000000, 1.000000000000000000 ) ) ;
#12 = PERSON_AND_ORGANIZATION ( #254, #103 ) ;
#13 = APPLICATION_CONTEXT ( 'configuration controlled 3d designs of mechanical parts and assemblies' ) ;
#14 = VECTOR ( 'NONE', #94, 1000.000000000000000 ) ;
#15 =( LENGTH_UNIT ( ) NAMED_UNIT ( * ) SI_UNIT ( .MILLI., .METRE. ) );
#16 = VECTOR ( 'NONE', #56, 1000.000000000000000 ) ;
#17 = CALENDAR_DATE ( 2023, 13, 2 ) ;
#18 = ADVANCED_FACE ( 'NONE', ( #104 ), #27, .F. ) ;
#19 = AXIS2_PLACEMENT_3D ( 'NONE', #245, #155, #64 ) ;
#20 = CYLINDRICAL_SURFACE ( 'NONE', #243, 11.00000000000000000 ) ;
#21 = ORIENTED_EDGE ( 'NONE', *, *, #229, .T. ) ;
#22 = PERSON_AND_ORGANIZATION ( #254, #103 ) ;
#23 = CARTESIAN_POINT ( 'NONE',  ( 11.00000000000000000, 1.347111479062088405E-15, 7.000000000000000000 ) ) ;
#24 = DIRECTION ( 'NONE',  ( 1.000000000000000000, 0.000000000000000000, -0.000000000000000000 ) ) ;
#25 = PLANE ( 'NONE',  #175 ) ;
#26 = DIRECTION ( 'NONE',  ( 0.000000000000000000, 0.000000000000000000, 1.000000000000000000 ) ) ;
#27 = PLANE ( 'NONE',  #139 ) ;
#28 = ORIENTED_EDGE ( 'NONE', *, *, #158, .F. ) ;
#29 = APPROVAL_DATE_TIME ( #209, #66 ) ;
#30 = AXIS2_PLACEMENT_3D ( 'NONE', #227, #26, #174 ) ;
#31 = CIRCLE ( 'NONE', #181, 8.500000000000000000 ) ;
#32 = EDGE_CURVE ( 'NONE', #201, #111, #183, .T. ) ;
#33 = LOCAL_TIME ( 9, 47, 11.00000000000000000, #142 ) ;
#34 = CIRCLE ( 'NONE', #153, 11.00000000000000000 ) ;
#35 = APPROVAL_STATUS ( 'not_yet_approved' ) ;
#36 = EDGE_CURVE ( 'NONE', #201, #96, #44, .T. ) ;
#37 = FACE_OUTER_BOUND ( 'NONE', #126, .T. ) ;
#38 = ORIENTED_EDGE ( 'NONE', *, *, #32, .F. ) ;
#39 = CARTESIAN_POINT ( 'NONE',  ( 0.000000000000000000, 0.000000000000000000, 7.000000000000000000 ) ) ;
#40 = CC_DESIGN_DATE_AND_TIME_ASSIGNMENT ( #122, #169, ( #99 ) ) ;
#41 = VERTEX_POINT ( 'NONE', #84 ) ;
#42 = AXIS2_PLACEMENT_3D ( 'NONE', #134, #188, #213 ) ;
#43 = FACE_BOUND ( 'NONE', #205, .T. ) ;
#44 = CIRCLE ( 'NONE', #231, 11.00000000000000000 ) ;
#45 = CALENDAR_DATE ( 2023, 13, 2 ) ;
#46 = CARTESIAN_POINT ( 'NONE',  ( 0.000000000000000000, 0.000000000000000000, 0.000000000000000000 ) ) ;
#47 =( GEOMETRIC_REPRESENTATION_CONTEXT ( 3 ) GLOBAL_UNCERTAINTY_ASSIGNED_CONTEXT ( ( #179 ) ) GLOBAL_UNIT_ASSIGNED_CONTEXT ( ( #15, #1, #189 ) ) REPRESENTATION_CONTEXT ( 'NONE', 'WORKASPACE' ) );
#48 = DIRECTION ( 'NONE',  ( 1.000000000000000000, 0.000000000000000000, 0.000000000000000000 ) ) ;
#49 = CIRCLE ( 'NONE', #80, 8.500000000000000000 ) ;
#50 = EDGE_CURVE ( 'NONE', #96, #201, #34, .T. ) ;
#51 = ORIENTED_EDGE ( 'NONE', *, *, #50, .F. ) ;
#52 = CIRCLE ( 'NONE', #30, 11.00000000000000000 ) ;
#53 = APPROVAL_ROLE ( '' ) ;
#54 = APPROVAL_PERSON_ORGANIZATION ( #70, #154, #53 ) ;
#55 = ORIENTED_EDGE ( 'NONE', *, *, #208, .T. ) ;
#56 = DIRECTION ( 'NONE',  ( -0.000000000000000000, -0.000000000000000000, -1.000000000000000000 ) ) ;
#57 = APPROVAL_ROLE ( '' ) ;
#58 = DIRECTION ( 'NONE',  ( 0.000000000000000000, 0.000000000000000000, 1.000000000000000000 ) ) ;
#59 = VERTEX_POINT ( 'NONE', #63 ) ;
#60 = DIRECTION ( 'NONE',  ( 0.000000000000000000, 0.000000000000000000, 1.000000000000000000 ) ) ;
#61 = EDGE_LOOP ( 'NONE', ( #237, #28 ) ) ;
#62 = AXIS2_PLACEMENT_3D ( 'NONE', #105, #101, #79 ) ;
#63 = CARTESIAN_POINT ( 'NONE',  ( -11.00000000000000000, 0.000000000000000000, 0.000000000000000000 ) ) ;
#64 = DIRECTION ( 'NONE',  ( -1.000000000000000000, 0.000000000000000000, 0.000000000000000000 ) ) ;
#65 = APPROVAL_STATUS ( 'not_yet_approved' ) ;
#66 = APPROVAL ( #65, 'NEURÈENÝ' ) ;
#67 = AXIS2_PLACEMENT_3D ( 'NONE', #211, #164, #48 ) ;
#68 = EDGE_LOOP ( 'NONE', ( #38, #51, #236, #244 ) ) ;
#69 = CARTESIAN_POINT ( 'NONE',  ( 8.500000000000000000, 1.040949779275250140E-15, 160.0000000000000000 ) ) ;
#70 = PERSON_AND_ORGANIZATION ( #254, #103 ) ;
#71 = PRODUCT ( '6712', '6712', '', ( #214 ) ) ;
#72 = COORDINATED_UNIVERSAL_TIME_OFFSET ( 1, 0, .AHEAD. ) ;
#73 = ORIENTED_EDGE ( 'NONE', *, *, #200, .T. ) ;
#74 = ADVANCED_BREP_SHAPE_REPRESENTATION ( '6712', ( #144, #67 ), #47 ) ;
#75 = APPLICATION_CONTEXT ( 'configuration controlled 3d designs of mechanical parts and assemblies' ) ;
#76 = ORIENTED_EDGE ( 'NONE', *, *, #36, .T. ) ;
#77 = ORIENTED_EDGE ( 'NONE', *, *, #193, .F. ) ;
#78 = CC_DESIGN_PERSON_AND_ORGANIZATION_ASSIGNMENT ( #129, #108, ( #163 ) ) ;
#79 = DIRECTION ( 'NONE',  ( -1.000000000000000000, 0.000000000000000000, 0.000000000000000000 ) ) ;
#80 = AXIS2_PLACEMENT_3D ( 'NONE', #145, #147, #221 ) ;
#81 = DIRECTION ( 'NONE',  ( 1.000000000000000000, 0.000000000000000000, -0.000000000000000000 ) ) ;
#82 = VERTEX_POINT ( 'NONE', #206 ) ;
#83 = CARTESIAN_POINT ( 'NONE',  ( 0.000000000000000000, 0.000000000000000000, 0.000000000000000000 ) ) ;
#84 = CARTESIAN_POINT ( 'NONE',  ( -8.500000000000000000, 0.000000000000000000, 160.0000000000000000 ) ) ;
#85 = CLOSED_SHELL ( 'NONE', ( #88, #4, #100, #91, #18, #141, #253 ) ) ;
#86 = APPROVAL_DATE_TIME ( #216, #154 ) ;
#87 = LINE ( 'NONE', #184, #16 ) ;
#88 = ADVANCED_FACE ( 'NONE', ( #224 ), #225, .T. ) ;
#89 = DIRECTION ( 'NONE',  ( -1.000000000000000000, 0.000000000000000000, 0.000000000000000000 ) ) ;
#90 = COORDINATED_UNIVERSAL_TIME_OFFSET ( 1, 0, .AHEAD. ) ;
#91 = ADVANCED_FACE ( 'NONE', ( #43, #130 ), #25, .T. ) ;
#92 = DIRECTION ( 'NONE',  ( 0.000000000000000000, 0.000000000000000000, 1.000000000000000000 ) ) ;
#93 = LOCAL_TIME ( 9, 47, 11.00000000000000000, #72 ) ;
#94 = DIRECTION ( 'NONE',  ( -0.000000000000000000, -0.000000000000000000, -1.000000000000000000 ) ) ;
#95 = EDGE_CURVE ( 'NONE', #59, #111, #52, .T. ) ;
#96 = VERTEX_POINT ( 'NONE', #248 ) ;
#97 = DATE_AND_TIME ( #17, #93 ) ;
#98 = ORIENTED_EDGE ( 'NONE', *, *, #200, .F. ) ;
#99 = PRODUCT_DEFINITION ( 'NEZNÁMÝ', '', #163, #115 ) ;
#100 = ADVANCED_FACE ( 'NONE', ( #228 ), #133, .T. ) ;
#101 = DIRECTION ( 'NONE',  ( -0.000000000000000000, -0.000000000000000000, -1.000000000000000000 ) ) ;
#102 = DIRECTION ( 'NONE',  ( 1.000000000000000000, 0.000000000000000000, 0.000000000000000000 ) ) ;
#103 = ORGANIZATION ( 'NEURÈENÝ', 'NEURÈENÝ', '' ) ;
#104 = FACE_OUTER_BOUND ( 'NONE', #61, .T. ) ;
#105 = CARTESIAN_POINT ( 'NONE',  ( 0.000000000000000000, 0.000000000000000000, 7.000000000000000000 ) ) ;
#106 = APPROVAL_ROLE ( '' ) ;
#107 = CARTESIAN_POINT ( 'NONE',  ( 0.000000000000000000, 0.000000000000000000, 7.000000000000000000 ) ) ;
#108 = PERSON_AND_ORGANIZATION_ROLE ( 'design_supplier' ) ;
#109 = ORIENTED_EDGE ( 'NONE', *, *, #50, .T. ) ;
#110 = APPROVAL_DATE_TIME ( #157, #192 ) ;
#111 = VERTEX_POINT ( 'NONE', #5 ) ;
#112 = ORIENTED_EDGE ( 'NONE', *, *, #32, .T. ) ;
#113 = PRODUCT_RELATED_PRODUCT_CATEGORY ( 'detail', '', ( #71 ) ) ;
#114 = AXIS2_PLACEMENT_3D ( 'NONE', #234, #92, #215 ) ;
#115 = DESIGN_CONTEXT ( 'detailed design', #13, 'design' ) ;
#116 = LOCAL_TIME ( 9, 47, 11.00000000000000000, #120 ) ;
#117 = PERSON_AND_ORGANIZATION ( #254, #103 ) ;
#118 = APPROVAL_STATUS ( 'not_yet_approved' ) ;
#119 = CIRCLE ( 'NONE', #185, 11.00000000000000000 ) ;
#120 = COORDINATED_UNIVERSAL_TIME_OFFSET ( 1, 0, .AHEAD. ) ;
#121 = PERSON_AND_ORGANIZATION_ROLE ( 'classification_officer' ) ;
#122 = DATE_AND_TIME ( #2, #116 ) ;
#123 = CC_DESIGN_PERSON_AND_ORGANIZATION_ASSIGNMENT ( #22, #249, ( #71 ) ) ;
#124 = EDGE_LOOP ( 'NONE', ( #109, #76 ) ) ;
#125 = APPLICATION_PROTOCOL_DEFINITION ( 'international standard', 'config_control_design', 1994, #75 ) ;
#126 = EDGE_LOOP ( 'NONE', ( #219, #55 ) ) ;
#127 = CARTESIAN_POINT ( 'NONE',  ( 0.000000000000000000, 0.000000000000000000, 160.0000000000000000 ) ) ;
#128 = CARTESIAN_POINT ( 'NONE',  ( 0.000000000000000000, 0.000000000000000000, 7.000000000000000000 ) ) ;
#129 = PERSON_AND_ORGANIZATION ( #254, #103 ) ;
#130 = FACE_OUTER_BOUND ( 'NONE', #124, .T. ) ;
#131 = CC_DESIGN_DATE_AND_TIME_ASSIGNMENT ( #97, #223, ( #204 ) ) ;
#132 = DIRECTION ( 'NONE',  ( 0.000000000000000000, 0.000000000000000000, 1.000000000000000000 ) ) ;
#133 = CYLINDRICAL_SURFACE ( 'NONE', #62, 11.00000000000000000 ) ;
#134 = CARTESIAN_POINT ( 'NONE',  ( 0.000000000000000000, 0.000000000000000000, 160.0000000000000000 ) ) ;
#135 = ORIENTED_EDGE ( 'NONE', *, *, #158, .T. ) ;
#136 = APPLICATION_PROTOCOL_DEFINITION ( 'international standard', 'config_control_design', 1994, #13 ) ;
#137 = ORIENTED_EDGE ( 'NONE', *, *, #180, .F. ) ;
#138 = SHAPE_DEFINITION_REPRESENTATION ( #220, #74 ) ;
#139 = AXIS2_PLACEMENT_3D ( 'NONE', #46, #6, #81 ) ;
#140 = EDGE_LOOP ( 'NONE', ( #178, #137, #146, #73 ) ) ;
#141 = ADVANCED_FACE ( 'NONE', ( #152 ), #196, .T. ) ;
#142 = COORDINATED_UNIVERSAL_TIME_OFFSET ( 1, 0, .AHEAD. ) ;
#143 = EDGE_LOOP ( 'NONE', ( #148, #21, #233, #77 ) ) ;
#144 = MANIFOLD_SOLID_BREP ( 'Pøidat vysunutím3', #85 ) ;
#145 = CARTESIAN_POINT ( 'NONE',  ( 0.000000000000000000, 0.000000000000000000, 7.000000000000000000 ) ) ;
#146 = ORIENTED_EDGE ( 'NONE', *, *, #193, .T. ) ;
#147 = DIRECTION ( 'NONE',  ( 0.000000000000000000, 0.000000000000000000, 1.000000000000000000 ) ) ;
#148 = ORIENTED_EDGE ( 'NONE', *, *, #208, .F. ) ;
#149 = DIRECTION ( 'NONE',  ( 1.000000000000000000, 0.000000000000000000, 0.000000000000000000 ) ) ;
#150 = VERTEX_POINT ( 'NONE', #9 ) ;
#151 = PERSON_AND_ORGANIZATION ( #254, #103 ) ;
#152 = FACE_OUTER_BOUND ( 'NONE', #140, .T. ) ;
#153 = AXIS2_PLACEMENT_3D ( 'NONE', #128, #60, #149 ) ;
#154 = APPROVAL ( #118, 'NEURÈENÝ' ) ;
#155 = DIRECTION ( 'NONE',  ( -0.000000000000000000, -0.000000000000000000, -1.000000000000000000 ) ) ;
#156 = LOCAL_TIME ( 9, 47, 11.00000000000000000, #90 ) ;
#157 = DATE_AND_TIME ( #241, #156 ) ;
#158 = EDGE_CURVE ( 'NONE', #111, #59, #119, .T. ) ;
#159 = CARTESIAN_POINT ( 'NONE',  ( 0.000000000000000000, 0.000000000000000000, 160.0000000000000000 ) ) ;
#160 = PERSON_AND_ORGANIZATION_ROLE ( 'creator' ) ;
#161 = PERSON_AND_ORGANIZATION ( #254, #103 ) ;
#162 = DIRECTION ( 'NONE',  ( -0.000000000000000000, -0.000000000000000000, -1.000000000000000000 ) ) ;
#163 = PRODUCT_DEFINITION_FORMATION_WITH_SPECIFIED_SOURCE ( 'LIBOVOLNÝ', '', #71, .NOT_KNOWN. ) ;
#164 = DIRECTION ( 'NONE',  ( 0.000000000000000000, 0.000000000000000000, 1.000000000000000000 ) ) ;
#165 = CIRCLE ( 'NONE', #114, 8.500000000000000000 ) ;
#166 = VECTOR ( 'NONE', #162, 1000.000000000000000 ) ;
#167 = CC_DESIGN_PERSON_AND_ORGANIZATION_ASSIGNMENT ( #161, #187, ( #99 ) ) ;
#168 = LINE ( 'NONE', #250, #166 ) ;
#169 = DATE_TIME_ROLE ( 'creation_date' ) ;
#170 = EDGE_CURVE ( 'NONE', #96, #59, #168, .T. ) ;
#171 = DIRECTION ( 'NONE',  ( -0.000000000000000000, -0.000000000000000000, -1.000000000000000000 ) ) ;
#172 = SECURITY_CLASSIFICATION_LEVEL ( 'unclassified' ) ;
#173 = ORIENTED_EDGE ( 'NONE', *, *, #36, .F. ) ;
#174 = DIRECTION ( 'NONE',  ( 1.000000000000000000, 0.000000000000000000, 0.000000000000000000 ) ) ;
#175 = AXIS2_PLACEMENT_3D ( 'NONE', #39, #199, #24 ) ;
#176 = CARTESIAN_POINT ( 'NONE',  ( -8.500000000000000000, 0.000000000000000000, 160.0000000000000000 ) ) ;
#177 = CC_DESIGN_PERSON_AND_ORGANIZATION_ASSIGNMENT ( #12, #160, ( #163 ) ) ;
#178 = ORIENTED_EDGE ( 'NONE', *, *, #229, .F. ) ;
#179 = UNCERTAINTY_MEASURE_WITH_UNIT (LENGTH_MEASURE( 1.000000000000000082E-05 ), #15, 'distance_accuracy_value', 'NONE');
#180 = EDGE_CURVE ( 'NONE', #41, #197, #246, .T. ) ;
#181 = AXIS2_PLACEMENT_3D ( 'NONE', #226, #11, #102 ) ;
#182 = CC_DESIGN_SECURITY_CLASSIFICATION ( #204, ( #163 ) ) ;
#183 = LINE ( 'NONE', #247, #252 ) ;
#184 = CARTESIAN_POINT ( 'NONE',  ( 8.500000000000000000, 1.040949779275250140E-15, 160.0000000000000000 ) ) ;
#185 = AXIS2_PLACEMENT_3D ( 'NONE', #83, #222, #198 ) ;
#186 = COORDINATED_UNIVERSAL_TIME_OFFSET ( 1, 0, .AHEAD. ) ;
#187 = PERSON_AND_ORGANIZATION_ROLE ( 'creator' ) ;
#188 = DIRECTION ( 'NONE',  ( 0.000000000000000000, 0.000000000000000000, 1.000000000000000000 ) ) ;
#189 =( NAMED_UNIT ( * ) SI_UNIT ( $, .STERADIAN. ) SOLID_ANGLE_UNIT ( ) );
#190 = CC_DESIGN_APPROVAL ( #66, ( #99 ) ) ;
#191 = CC_DESIGN_APPROVAL ( #192, ( #204 ) ) ;
#192 = APPROVAL ( #35, 'NEURÈENÝ' ) ;
#193 = EDGE_CURVE ( 'NONE', #41, #82, #235, .T. ) ;
#194 = APPROVAL_PERSON_ORGANIZATION ( #207, #66, #106 ) ;
#195 = ORIENTED_EDGE ( 'NONE', *, *, #170, .F. ) ;
#196 = CYLINDRICAL_SURFACE ( 'NONE', #10, 8.500000000000000000 ) ;
#197 = VERTEX_POINT ( 'NONE', #69 ) ;
#198 = DIRECTION ( 'NONE',  ( 1.000000000000000000, 0.000000000000000000, 0.000000000000000000 ) ) ;
#199 = DIRECTION ( 'NONE',  ( 0.000000000000000000, 0.000000000000000000, 1.000000000000000000 ) ) ;
#200 = EDGE_CURVE ( 'NONE', #82, #150, #165, .T. ) ;
#201 = VERTEX_POINT ( 'NONE', #23 ) ;
#202 = DIRECTION ( 'NONE',  ( -0.000000000000000000, -0.000000000000000000, -1.000000000000000000 ) ) ;
#203 = DIRECTION ( 'NONE',  ( -0.000000000000000000, -0.000000000000000000, -1.000000000000000000 ) ) ;
#204 = SECURITY_CLASSIFICATION ( '', '', #172 ) ;
#205 = EDGE_LOOP ( 'NONE', ( #98, #255 ) ) ;
#206 = CARTESIAN_POINT ( 'NONE',  ( -8.500000000000000000, 0.000000000000000000, 7.000000000000000000 ) ) ;
#207 = PERSON_AND_ORGANIZATION ( #254, #103 ) ;
#208 = EDGE_CURVE ( 'NONE', #197, #41, #31, .T. ) ;
#209 = DATE_AND_TIME ( #45, #230 ) ;
#210 = CC_DESIGN_PERSON_AND_ORGANIZATION_ASSIGNMENT ( #117, #121, ( #204 ) ) ;
#211 = CARTESIAN_POINT ( 'NONE',  ( 0.000000000000000000, 0.000000000000000000, 0.000000000000000000 ) ) ;
#212 = DIRECTION ( 'NONE',  ( 1.000000000000000000, 0.000000000000000000, -0.000000000000000000 ) ) ;
#213 = DIRECTION ( 'NONE',  ( 1.000000000000000000, 0.000000000000000000, 0.000000000000000000 ) ) ;
#214 = MECHANICAL_CONTEXT ( 'NONE', #75, 'mechanical' ) ;
#215 = DIRECTION ( 'NONE',  ( 1.000000000000000000, 0.000000000000000000, 0.000000000000000000 ) ) ;
#216 = DATE_AND_TIME ( #218, #33 ) ;
#217 = CC_DESIGN_APPROVAL ( #154, ( #163 ) ) ;
#218 = CALENDAR_DATE ( 2023, 13, 2 ) ;
#219 = ORIENTED_EDGE ( 'NONE', *, *, #180, .T. ) ;
#220 = PRODUCT_DEFINITION_SHAPE ( 'NONE', 'NONE',  #99 ) ;
#221 = DIRECTION ( 'NONE',  ( 1.000000000000000000, 0.000000000000000000, 0.000000000000000000 ) ) ;
#222 = DIRECTION ( 'NONE',  ( 0.000000000000000000, 0.000000000000000000, 1.000000000000000000 ) ) ;
#223 = DATE_TIME_ROLE ( 'classification_date' ) ;
#224 = FACE_OUTER_BOUND ( 'NONE', #143, .T. ) ;
#225 = CYLINDRICAL_SURFACE ( 'NONE', #19, 8.500000000000000000 ) ;
#226 = CARTESIAN_POINT ( 'NONE',  ( 0.000000000000000000, 0.000000000000000000, 160.0000000000000000 ) ) ;
#227 = CARTESIAN_POINT ( 'NONE',  ( 0.000000000000000000, 0.000000000000000000, 0.000000000000000000 ) ) ;
#228 = FACE_OUTER_BOUND ( 'NONE', #68, .T. ) ;
#229 = EDGE_CURVE ( 'NONE', #197, #150, #87, .T. ) ;
#230 = LOCAL_TIME ( 9, 47, 11.00000000000000000, #186 ) ;
#231 = AXIS2_PLACEMENT_3D ( 'NONE', #239, #58, #242 ) ;
#232 = AXIS2_PLACEMENT_3D ( 'NONE', #159, #132, #212 ) ;
#233 = ORIENTED_EDGE ( 'NONE', *, *, #251, .T. ) ;
#234 = CARTESIAN_POINT ( 'NONE',  ( 0.000000000000000000, 0.000000000000000000, 7.000000000000000000 ) ) ;
#235 = LINE ( 'NONE', #176, #14 ) ;
#236 = ORIENTED_EDGE ( 'NONE', *, *, #170, .T. ) ;
#237 = ORIENTED_EDGE ( 'NONE', *, *, #95, .F. ) ;
#238 = DIRECTION ( 'NONE',  ( -1.000000000000000000, 0.000000000000000000, 0.000000000000000000 ) ) ;
#239 = CARTESIAN_POINT ( 'NONE',  ( 0.000000000000000000, 0.000000000000000000, 7.000000000000000000 ) ) ;
#240 = EDGE_LOOP ( 'NONE', ( #173, #112, #135, #195 ) ) ;
#241 = CALENDAR_DATE ( 2023, 13, 2 ) ;
#242 = DIRECTION ( 'NONE',  ( 1.000000000000000000, 0.000000000000000000, 0.000000000000000000 ) ) ;
#243 = AXIS2_PLACEMENT_3D ( 'NONE', #107, #203, #89 ) ;
#244 = ORIENTED_EDGE ( 'NONE', *, *, #95, .T. ) ;
#245 = CARTESIAN_POINT ( 'NONE',  ( 0.000000000000000000, 0.000000000000000000, 160.0000000000000000 ) ) ;
#246 = CIRCLE ( 'NONE', #42, 8.500000000000000000 ) ;
#247 = CARTESIAN_POINT ( 'NONE',  ( 11.00000000000000000, 1.347111479062088405E-15, 7.000000000000000000 ) ) ;
#248 = CARTESIAN_POINT ( 'NONE',  ( -11.00000000000000000, 0.000000000000000000, 7.000000000000000000 ) ) ;
#249 = PERSON_AND_ORGANIZATION_ROLE ( 'design_owner' ) ;
#250 = CARTESIAN_POINT ( 'NONE',  ( -11.00000000000000000, 0.000000000000000000, 7.000000000000000000 ) ) ;
#251 = EDGE_CURVE ( 'NONE', #150, #82, #49, .T. ) ;
#252 = VECTOR ( 'NONE', #171, 1000.000000000000000 ) ;
#253 = ADVANCED_FACE ( 'NONE', ( #37 ), #7, .T. ) ;
#254 = PERSON ( 'NEURÈENÝ', 'NEURÈENÝ', 'NEURÈENÝ', ('NEURÈENÝ'), ('NEURÈENÝ'), ('NEURÈENÝ') ) ;
#255 = ORIENTED_EDGE ( 'NONE', *, *, #251, .F. ) ;
ENDSEC;
END-ISO-10303-21;
