ISO-10303-21;
HEADER;
FILE_DESCRIPTION (( 'STEP AP203' ),
    '1' );
FILE_NAME ('358c.STEP',
    '2022-07-07T17:15:23',
    ( '' ),
    ( '' ),
    'SwSTEP 2.0',
    'SolidWorks 2019',
    '' );
FILE_SCHEMA (( 'CONFIG_CONTROL_DESIGN' ));
ENDSEC;

DATA;
#1 = FACE_OUTER_BOUND ( 'NONE', #187, .T. ) ;
#2 = DIRECTION ( 'NONE',  ( 1.000000000000000000, 0.000000000000000000, -0.000000000000000000 ) ) ;
#3 = CIRCLE ( 'NONE', #91, 6.750000000000000000 ) ;
#4 = ORIENTED_EDGE ( 'NONE', *, *, #255, .T. ) ;
#5 = PERSON ( 'NEURÈENÝ', 'NEURÈENÝ', 'NEURÈENÝ', ('NEURÈENÝ'), ('NEURÈENÝ'), ('NEURÈENÝ') ) ;
#6 = ORIENTED_EDGE ( 'NONE', *, *, #52, .T. ) ;
#7 = AXIS2_PLACEMENT_3D ( 'NONE', #117, #48, #83 ) ;
#8 = CARTESIAN_POINT ( 'NONE',  ( -6.750000000000000000, 0.000000000000000000, 257.0000000000000000 ) ) ;
#9 = PLANE ( 'NONE',  #78 ) ;
#10 = DESIGN_CONTEXT ( 'detailed design', #216, 'design' ) ;
#11 = CARTESIAN_POINT ( 'NONE',  ( 0.000000000000000000, 0.000000000000000000, 7.000000000000000000 ) ) ;
#12 = VECTOR ( 'NONE', #30, 1000.000000000000000 ) ;
#13 = APPROVAL ( #37, 'NEURÈENÝ' ) ;
#14 = SHAPE_DEFINITION_REPRESENTATION ( #247, #137 ) ;
#15 = PERSON_AND_ORGANIZATION ( #5, #165 ) ;
#16 = DIRECTION ( 'NONE',  ( 1.000000000000000000, 0.000000000000000000, 0.000000000000000000 ) ) ;
#17 = CARTESIAN_POINT ( 'NONE',  ( 11.00000000000000000, 1.347111479062088405E-15, 7.000000000000000000 ) ) ;
#18 = CC_DESIGN_APPROVAL ( #19, ( #56 ) ) ;
#19 = APPROVAL ( #144, 'NEURÈENÝ' ) ;
#20 = VERTEX_POINT ( 'NONE', #236 ) ;
#21 = ORIENTED_EDGE ( 'NONE', *, *, #61, .F. ) ;
#22 = DIRECTION ( 'NONE',  ( 1.000000000000000000, 0.000000000000000000, 0.000000000000000000 ) ) ;
#23 = CIRCLE ( 'NONE', #58, 6.750000000000000000 ) ;
#24 = VERTEX_POINT ( 'NONE', #194 ) ;
#25 = PLANE ( 'NONE',  #33 ) ;
#26 = ORIENTED_EDGE ( 'NONE', *, *, #181, .F. ) ;
#27 = DIRECTION ( 'NONE',  ( 0.000000000000000000, 0.000000000000000000, 1.000000000000000000 ) ) ;
#28 = AXIS2_PLACEMENT_3D ( 'NONE', #241, #240, #179 ) ;
#29 = LINE ( 'NONE', #242, #134 ) ;
#30 = DIRECTION ( 'NONE',  ( -0.000000000000000000, -0.000000000000000000, -1.000000000000000000 ) ) ;
#31 = FACE_OUTER_BOUND ( 'NONE', #254, .T. ) ;
#32 = CIRCLE ( 'NONE', #193, 6.750000000000000000 ) ;
#33 = AXIS2_PLACEMENT_3D ( 'NONE', #210, #232, #110 ) ;
#34 = PERSON_AND_ORGANIZATION_ROLE ( 'design_supplier' ) ;
#35 = PRODUCT ( '358c', '358c', '', ( #126 ) ) ;
#36 = PERSON_AND_ORGANIZATION ( #5, #165 ) ;
#37 = APPROVAL_STATUS ( 'not_yet_approved' ) ;
#38 = CARTESIAN_POINT ( 'NONE',  ( 11.00000000000000000, 1.347111479062088405E-15, 0.000000000000000000 ) ) ;
#39 = ADVANCED_FACE ( 'NONE', ( #139 ), #66, .T. ) ;
#40 = CARTESIAN_POINT ( 'NONE',  ( -11.00000000000000000, 0.000000000000000000, 0.000000000000000000 ) ) ;
#41 = DIRECTION ( 'NONE',  ( 1.000000000000000000, 0.000000000000000000, 0.000000000000000000 ) ) ;
#42 = ADVANCED_FACE ( 'NONE', ( #67 ), #69, .T. ) ;
#43 = PRODUCT_DEFINITION_FORMATION_WITH_SPECIFIED_SOURCE ( 'LIBOVOLNÝ', '', #35, .NOT_KNOWN. ) ;
#44 = ORIENTED_EDGE ( 'NONE', *, *, #142, .T. ) ;
#45 = CARTESIAN_POINT ( 'NONE',  ( 0.000000000000000000, 0.000000000000000000, 257.0000000000000000 ) ) ;
#46 = CC_DESIGN_PERSON_AND_ORGANIZATION_ASSIGNMENT ( #226, #34, ( #43 ) ) ;
#47 = CARTESIAN_POINT ( 'NONE',  ( 0.000000000000000000, 0.000000000000000000, 257.0000000000000000 ) ) ;
#48 = DIRECTION ( 'NONE',  ( -0.000000000000000000, -0.000000000000000000, -1.000000000000000000 ) ) ;
#49 = DIRECTION ( 'NONE',  ( -0.000000000000000000, -0.000000000000000000, -1.000000000000000000 ) ) ;
#50 = DATE_AND_TIME ( #252, #230 ) ;
#51 = PERSON_AND_ORGANIZATION ( #5, #165 ) ;
#52 = EDGE_CURVE ( 'NONE', #82, #195, #23, .T. ) ;
#53 = DATE_AND_TIME ( #107, #92 ) ;
#54 = CIRCLE ( 'NONE', #192, 11.00000000000000000 ) ;
#55 = DATE_AND_TIME ( #229, #243 ) ;
#56 = PRODUCT_DEFINITION ( 'NEZNÁMÝ', '', #43, #10 ) ;
#57 = APPLICATION_PROTOCOL_DEFINITION ( 'international standard', 'config_control_design', 1994, #205 ) ;
#58 = AXIS2_PLACEMENT_3D ( 'NONE', #158, #177, #202 ) ;
#59 = ORIENTED_EDGE ( 'NONE', *, *, #75, .F. ) ;
#60 =( NAMED_UNIT ( * ) SI_UNIT ( $, .STERADIAN. ) SOLID_ANGLE_UNIT ( ) );
#61 = EDGE_CURVE ( 'NONE', #82, #20, #156, .T. ) ;
#62 = ORIENTED_EDGE ( 'NONE', *, *, #196, .F. ) ;
#63 = CARTESIAN_POINT ( 'NONE',  ( 0.000000000000000000, 0.000000000000000000, 0.000000000000000000 ) ) ;
#64 = ORIENTED_EDGE ( 'NONE', *, *, #221, .T. ) ;
#65 = DIRECTION ( 'NONE',  ( -1.000000000000000000, 0.000000000000000000, 0.000000000000000000 ) ) ;
#66 = CYLINDRICAL_SURFACE ( 'NONE', #211, 6.750000000000000000 ) ;
#67 = FACE_OUTER_BOUND ( 'NONE', #115, .T. ) ;
#68 = CC_DESIGN_DATE_AND_TIME_ASSIGNMENT ( #145, #121, ( #125 ) ) ;
#69 = CYLINDRICAL_SURFACE ( 'NONE', #246, 6.750000000000000000 ) ;
#70 = APPLICATION_PROTOCOL_DEFINITION ( 'international standard', 'config_control_design', 1994, #216 ) ;
#71 = APPROVAL_PERSON_ORGANIZATION ( #36, #19, #227 ) ;
#72 = DATE_TIME_ROLE ( 'creation_date' ) ;
#73 = APPROVAL_STATUS ( 'not_yet_approved' ) ;
#74 = PERSON_AND_ORGANIZATION_ROLE ( 'design_owner' ) ;
#75 = EDGE_CURVE ( 'NONE', #113, #24, #130, .T. ) ;
#76 = COORDINATED_UNIVERSAL_TIME_OFFSET ( 1, 0, .AHEAD. ) ;
#77 = ORIENTED_EDGE ( 'NONE', *, *, #160, .F. ) ;
#78 = AXIS2_PLACEMENT_3D ( 'NONE', #47, #223, #198 ) ;
#79 = VERTEX_POINT ( 'NONE', #218 ) ;
#80 = CARTESIAN_POINT ( 'NONE',  ( 6.750000000000000000, 8.266365894244634333E-16, 257.0000000000000000 ) ) ;
#81 = EDGE_LOOP ( 'NONE', ( #6, #151 ) ) ;
#82 = VERTEX_POINT ( 'NONE', #197 ) ;
#83 = DIRECTION ( 'NONE',  ( -1.000000000000000000, 0.000000000000000000, 0.000000000000000000 ) ) ;
#84 = DIRECTION ( 'NONE',  ( -1.000000000000000000, 0.000000000000000000, 0.000000000000000000 ) ) ;
#85 = LINE ( 'NONE', #200, #12 ) ;
#86 = FACE_OUTER_BOUND ( 'NONE', #149, .T. ) ;
#87 = VECTOR ( 'NONE', #234, 1000.000000000000000 ) ;
#88 = CC_DESIGN_PERSON_AND_ORGANIZATION_ASSIGNMENT ( #143, #89, ( #56 ) ) ;
#89 = PERSON_AND_ORGANIZATION_ROLE ( 'creator' ) ;
#90 = DATE_AND_TIME ( #103, #122 ) ;
#91 = AXIS2_PLACEMENT_3D ( 'NONE', #127, #168, #41 ) ;
#92 = LOCAL_TIME ( 19, 15, 23.00000000000000000, #250 ) ;
#93 =( LENGTH_UNIT ( ) NAMED_UNIT ( * ) SI_UNIT ( .MILLI., .METRE. ) );
#94 = ORIENTED_EDGE ( 'NONE', *, *, #196, .T. ) ;
#95 = ORIENTED_EDGE ( 'NONE', *, *, #129, .F. ) ;
#96 = AXIS2_PLACEMENT_3D ( 'NONE', #239, #116, #65 ) ;
#97 = DIRECTION ( 'NONE',  ( 0.000000000000000000, 0.000000000000000000, 1.000000000000000000 ) ) ;
#98 = ORIENTED_EDGE ( 'NONE', *, *, #75, .T. ) ;
#99 = FACE_OUTER_BOUND ( 'NONE', #81, .T. ) ;
#100 = DIRECTION ( 'NONE',  ( 0.000000000000000000, 0.000000000000000000, 1.000000000000000000 ) ) ;
#101 = PERSON_AND_ORGANIZATION ( #5, #165 ) ;
#102 = CC_DESIGN_DATE_AND_TIME_ASSIGNMENT ( #90, #72, ( #56 ) ) ;
#103 = CALENDAR_DATE ( 2022, 7, 7 ) ;
#104 = AXIS2_PLACEMENT_3D ( 'NONE', #11, #100, #118 ) ;
#105 = APPROVAL_ROLE ( '' ) ;
#106 = CC_DESIGN_SECURITY_CLASSIFICATION ( #125, ( #43 ) ) ;
#107 = CALENDAR_DATE ( 2022, 7, 7 ) ;
#108 = CARTESIAN_POINT ( 'NONE',  ( 0.000000000000000000, 0.000000000000000000, 0.000000000000000000 ) ) ;
#109 = MANIFOLD_SOLID_BREP ( 'Pøidat vysunutím3', #175 ) ;
#110 = DIRECTION ( 'NONE',  ( 1.000000000000000000, 0.000000000000000000, -0.000000000000000000 ) ) ;
#111 = EDGE_LOOP ( 'NONE', ( #95, #128, #154, #44 ) ) ;
#112 = CARTESIAN_POINT ( 'NONE',  ( 0.000000000000000000, 0.000000000000000000, 0.000000000000000000 ) ) ;
#113 = VERTEX_POINT ( 'NONE', #222 ) ;
#114 = PRODUCT_RELATED_PRODUCT_CATEGORY ( 'detail', '', ( #35 ) ) ;
#115 = EDGE_LOOP ( 'NONE', ( #153, #173, #174, #21 ) ) ;
#116 = DIRECTION ( 'NONE',  ( -0.000000000000000000, -0.000000000000000000, -1.000000000000000000 ) ) ;
#117 = CARTESIAN_POINT ( 'NONE',  ( 0.000000000000000000, 0.000000000000000000, 7.000000000000000000 ) ) ;
#118 = DIRECTION ( 'NONE',  ( 1.000000000000000000, 0.000000000000000000, 0.000000000000000000 ) ) ;
#119 = DIRECTION ( 'NONE',  ( -0.000000000000000000, -0.000000000000000000, -1.000000000000000000 ) ) ;
#120 = ADVANCED_FACE ( 'NONE', ( #31 ), #219, .T. ) ;
#121 = DATE_TIME_ROLE ( 'classification_date' ) ;
#122 = LOCAL_TIME ( 19, 15, 23.00000000000000000, #204 ) ;
#123 = APPROVAL_DATE_TIME ( #53, #13 ) ;
#124 = ADVANCED_FACE ( 'NONE', ( #99 ), #9, .T. ) ;
#125 = SECURITY_CLASSIFICATION ( '', '', #249 ) ;
#126 = MECHANICAL_CONTEXT ( 'NONE', #205, 'mechanical' ) ;
#127 = CARTESIAN_POINT ( 'NONE',  ( 0.000000000000000000, 0.000000000000000000, 7.000000000000000000 ) ) ;
#128 = ORIENTED_EDGE ( 'NONE', *, *, #52, .F. ) ;
#129 = EDGE_CURVE ( 'NONE', #195, #79, #29, .T. ) ;
#130 = CIRCLE ( 'NONE', #28, 11.00000000000000000 ) ;
#131 = DIRECTION ( 'NONE',  ( 0.000000000000000000, 0.000000000000000000, 1.000000000000000000 ) ) ;
#132 = EDGE_LOOP ( 'NONE', ( #213, #215 ) ) ;
#133 = EDGE_LOOP ( 'NONE', ( #135, #26 ) ) ;
#134 = VECTOR ( 'NONE', #49, 1000.000000000000000 ) ;
#135 = ORIENTED_EDGE ( 'NONE', *, *, #142, .F. ) ;
#136 = AXIS2_PLACEMENT_3D ( 'NONE', #63, #97, #2 ) ;
#137 = ADVANCED_BREP_SHAPE_REPRESENTATION ( '358c', ( #109, #238 ), #199 ) ;
#138 = DIRECTION ( 'NONE',  ( -0.000000000000000000, -0.000000000000000000, -1.000000000000000000 ) ) ;
#139 = FACE_OUTER_BOUND ( 'NONE', #111, .T. ) ;
#140 = DIRECTION ( 'NONE',  ( -0.000000000000000000, -0.000000000000000000, -1.000000000000000000 ) ) ;
#141 = CARTESIAN_POINT ( 'NONE',  ( 0.000000000000000000, 0.000000000000000000, 257.0000000000000000 ) ) ;
#142 = EDGE_CURVE ( 'NONE', #20, #79, #220, .T. ) ;
#143 = PERSON_AND_ORGANIZATION ( #5, #165 ) ;
#144 = APPROVAL_STATUS ( 'not_yet_approved' ) ;
#145 = DATE_AND_TIME ( #147, #225 ) ;
#146 = COORDINATED_UNIVERSAL_TIME_OFFSET ( 1, 0, .AHEAD. ) ;
#147 = CALENDAR_DATE ( 2022, 7, 7 ) ;
#148 =( NAMED_UNIT ( * ) PLANE_ANGLE_UNIT ( ) SI_UNIT ( $, .RADIAN. ) );
#149 = EDGE_LOOP ( 'NONE', ( #59, #94, #64, #77 ) ) ;
#150 = DIRECTION ( 'NONE',  ( 1.000000000000000000, 0.000000000000000000, 0.000000000000000000 ) ) ;
#151 = ORIENTED_EDGE ( 'NONE', *, *, #176, .T. ) ;
#152 = DIRECTION ( 'NONE',  ( 1.000000000000000000, 0.000000000000000000, 0.000000000000000000 ) ) ;
#153 = ORIENTED_EDGE ( 'NONE', *, *, #176, .F. ) ;
#154 = ORIENTED_EDGE ( 'NONE', *, *, #61, .T. ) ;
#155 = CYLINDRICAL_SURFACE ( 'NONE', #96, 11.00000000000000000 ) ;
#156 = LINE ( 'NONE', #8, #237 ) ;
#157 = DIRECTION ( 'NONE',  ( -1.000000000000000000, 0.000000000000000000, 0.000000000000000000 ) ) ;
#158 = CARTESIAN_POINT ( 'NONE',  ( 0.000000000000000000, 0.000000000000000000, 257.0000000000000000 ) ) ;
#159 = APPROVAL_PERSON_ORGANIZATION ( #206, #169, #105 ) ;
#160 = EDGE_CURVE ( 'NONE', #24, #233, #85, .T. ) ;
#161 = ADVANCED_FACE ( 'NONE', ( #86 ), #155, .T. ) ;
#162 = PERSON_AND_ORGANIZATION_ROLE ( 'classification_officer' ) ;
#163 = CIRCLE ( 'NONE', #248, 11.00000000000000000 ) ;
#164 = CC_DESIGN_PERSON_AND_ORGANIZATION_ASSIGNMENT ( #15, #162, ( #125 ) ) ;
#165 = ORGANIZATION ( 'NEURÈENÝ', 'NEURÈENÝ', '' ) ;
#166 = LINE ( 'NONE', #17, #87 ) ;
#167 = ORIENTED_EDGE ( 'NONE', *, *, #160, .T. ) ;
#168 = DIRECTION ( 'NONE',  ( 0.000000000000000000, 0.000000000000000000, 1.000000000000000000 ) ) ;
#169 = APPROVAL ( #73, 'NEURÈENÝ' ) ;
#170 = ORIENTED_EDGE ( 'NONE', *, *, #186, .T. ) ;
#171 = CC_DESIGN_APPROVAL ( #13, ( #125 ) ) ;
#172 = CARTESIAN_POINT ( 'NONE',  ( 0.000000000000000000, 0.000000000000000000, 0.000000000000000000 ) ) ;
#173 = ORIENTED_EDGE ( 'NONE', *, *, #129, .T. ) ;
#174 = ORIENTED_EDGE ( 'NONE', *, *, #181, .T. ) ;
#175 = CLOSED_SHELL ( 'NONE', ( #42, #161, #120, #244, #224, #39, #124 ) ) ;
#176 = EDGE_CURVE ( 'NONE', #195, #82, #32, .T. ) ;
#177 = DIRECTION ( 'NONE',  ( 0.000000000000000000, 0.000000000000000000, 1.000000000000000000 ) ) ;
#178 = CARTESIAN_POINT ( 'NONE',  ( 0.000000000000000000, 0.000000000000000000, 257.0000000000000000 ) ) ;
#179 = DIRECTION ( 'NONE',  ( 1.000000000000000000, 0.000000000000000000, 0.000000000000000000 ) ) ;
#180 = APPROVAL_ROLE ( '' ) ;
#181 = EDGE_CURVE ( 'NONE', #79, #20, #3, .T. ) ;
#182 = APPROVAL_DATE_TIME ( #55, #19 ) ;
#183 = APPROVAL_PERSON_ORGANIZATION ( #101, #13, #180 ) ;
#184 = COORDINATED_UNIVERSAL_TIME_OFFSET ( 1, 0, .AHEAD. ) ;
#185 = DIRECTION ( 'NONE',  ( 0.000000000000000000, 0.000000000000000000, 1.000000000000000000 ) ) ;
#186 = EDGE_CURVE ( 'NONE', #24, #113, #54, .T. ) ;
#187 = EDGE_LOOP ( 'NONE', ( #170, #98 ) ) ;
#188 = DIRECTION ( 'NONE',  ( 0.000000000000000000, 0.000000000000000000, 1.000000000000000000 ) ) ;
#189 = ORIENTED_EDGE ( 'NONE', *, *, #186, .F. ) ;
#190 = PLANE ( 'NONE',  #136 ) ;
#191 = FACE_BOUND ( 'NONE', #133, .T. ) ;
#192 = AXIS2_PLACEMENT_3D ( 'NONE', #214, #212, #235 ) ;
#193 = AXIS2_PLACEMENT_3D ( 'NONE', #45, #27, #152 ) ;
#194 = CARTESIAN_POINT ( 'NONE',  ( -11.00000000000000000, 0.000000000000000000, 7.000000000000000000 ) ) ;
#195 = VERTEX_POINT ( 'NONE', #80 ) ;
#196 = EDGE_CURVE ( 'NONE', #113, #217, #166, .T. ) ;
#197 = CARTESIAN_POINT ( 'NONE',  ( -6.750000000000000000, 0.000000000000000000, 257.0000000000000000 ) ) ;
#198 = DIRECTION ( 'NONE',  ( 1.000000000000000000, 0.000000000000000000, -0.000000000000000000 ) ) ;
#199 =( GEOMETRIC_REPRESENTATION_CONTEXT ( 3 ) GLOBAL_UNCERTAINTY_ASSIGNED_CONTEXT ( ( #245 ) ) GLOBAL_UNIT_ASSIGNED_CONTEXT ( ( #93, #148, #60 ) ) REPRESENTATION_CONTEXT ( 'NONE', 'WORKASPACE' ) );
#200 = CARTESIAN_POINT ( 'NONE',  ( -11.00000000000000000, 0.000000000000000000, 7.000000000000000000 ) ) ;
#201 = CC_DESIGN_PERSON_AND_ORGANIZATION_ASSIGNMENT ( #51, #209, ( #43 ) ) ;
#202 = DIRECTION ( 'NONE',  ( 1.000000000000000000, 0.000000000000000000, 0.000000000000000000 ) ) ;
#203 = CC_DESIGN_APPROVAL ( #169, ( #43 ) ) ;
#204 = COORDINATED_UNIVERSAL_TIME_OFFSET ( 1, 0, .AHEAD. ) ;
#205 = APPLICATION_CONTEXT ( 'configuration controlled 3d designs of mechanical parts and assemblies' ) ;
#206 = PERSON_AND_ORGANIZATION ( #5, #165 ) ;
#207 = CC_DESIGN_PERSON_AND_ORGANIZATION_ASSIGNMENT ( #208, #74, ( #35 ) ) ;
#208 = PERSON_AND_ORGANIZATION ( #5, #165 ) ;
#209 = PERSON_AND_ORGANIZATION_ROLE ( 'creator' ) ;
#210 = CARTESIAN_POINT ( 'NONE',  ( 0.000000000000000000, 0.000000000000000000, 7.000000000000000000 ) ) ;
#211 = AXIS2_PLACEMENT_3D ( 'NONE', #178, #138, #157 ) ;
#212 = DIRECTION ( 'NONE',  ( 0.000000000000000000, 0.000000000000000000, 1.000000000000000000 ) ) ;
#213 = ORIENTED_EDGE ( 'NONE', *, *, #255, .F. ) ;
#214 = CARTESIAN_POINT ( 'NONE',  ( 0.000000000000000000, 0.000000000000000000, 7.000000000000000000 ) ) ;
#215 = ORIENTED_EDGE ( 'NONE', *, *, #221, .F. ) ;
#216 = APPLICATION_CONTEXT ( 'configuration controlled 3d designs of mechanical parts and assemblies' ) ;
#217 = VERTEX_POINT ( 'NONE', #38 ) ;
#218 = CARTESIAN_POINT ( 'NONE',  ( 6.750000000000000000, 8.266365894244634333E-16, 7.000000000000000000 ) ) ;
#219 = CYLINDRICAL_SURFACE ( 'NONE', #7, 11.00000000000000000 ) ;
#220 = CIRCLE ( 'NONE', #104, 6.750000000000000000 ) ;
#221 = EDGE_CURVE ( 'NONE', #217, #233, #228, .T. ) ;
#222 = CARTESIAN_POINT ( 'NONE',  ( 11.00000000000000000, 1.347111479062088405E-15, 7.000000000000000000 ) ) ;
#223 = DIRECTION ( 'NONE',  ( 0.000000000000000000, 0.000000000000000000, 1.000000000000000000 ) ) ;
#224 = ADVANCED_FACE ( 'NONE', ( #253 ), #190, .F. ) ;
#225 = LOCAL_TIME ( 19, 15, 23.00000000000000000, #76 ) ;
#226 = PERSON_AND_ORGANIZATION ( #5, #165 ) ;
#227 = APPROVAL_ROLE ( '' ) ;
#228 = CIRCLE ( 'NONE', #251, 11.00000000000000000 ) ;
#229 = CALENDAR_DATE ( 2022, 7, 7 ) ;
#230 = LOCAL_TIME ( 19, 15, 23.00000000000000000, #184 ) ;
#231 = APPROVAL_DATE_TIME ( #50, #169 ) ;
#232 = DIRECTION ( 'NONE',  ( 0.000000000000000000, 0.000000000000000000, 1.000000000000000000 ) ) ;
#233 = VERTEX_POINT ( 'NONE', #40 ) ;
#234 = DIRECTION ( 'NONE',  ( -0.000000000000000000, -0.000000000000000000, -1.000000000000000000 ) ) ;
#235 = DIRECTION ( 'NONE',  ( 1.000000000000000000, 0.000000000000000000, 0.000000000000000000 ) ) ;
#236 = CARTESIAN_POINT ( 'NONE',  ( -6.750000000000000000, 0.000000000000000000, 7.000000000000000000 ) ) ;
#237 = VECTOR ( 'NONE', #140, 1000.000000000000000 ) ;
#238 = AXIS2_PLACEMENT_3D ( 'NONE', #112, #185, #16 ) ;
#239 = CARTESIAN_POINT ( 'NONE',  ( 0.000000000000000000, 0.000000000000000000, 7.000000000000000000 ) ) ;
#240 = DIRECTION ( 'NONE',  ( 0.000000000000000000, 0.000000000000000000, 1.000000000000000000 ) ) ;
#241 = CARTESIAN_POINT ( 'NONE',  ( 0.000000000000000000, 0.000000000000000000, 7.000000000000000000 ) ) ;
#242 = CARTESIAN_POINT ( 'NONE',  ( 6.750000000000000000, 8.266365894244634333E-16, 257.0000000000000000 ) ) ;
#243 = LOCAL_TIME ( 19, 15, 23.00000000000000000, #146 ) ;
#244 = ADVANCED_FACE ( 'NONE', ( #191, #1 ), #25, .T. ) ;
#245 = UNCERTAINTY_MEASURE_WITH_UNIT (LENGTH_MEASURE( 1.000000000000000082E-05 ), #93, 'distance_accuracy_value', 'NONE');
#246 = AXIS2_PLACEMENT_3D ( 'NONE', #141, #119, #84 ) ;
#247 = PRODUCT_DEFINITION_SHAPE ( 'NONE', 'NONE',  #56 ) ;
#248 = AXIS2_PLACEMENT_3D ( 'NONE', #172, #188, #22 ) ;
#249 = SECURITY_CLASSIFICATION_LEVEL ( 'unclassified' ) ;
#250 = COORDINATED_UNIVERSAL_TIME_OFFSET ( 1, 0, .AHEAD. ) ;
#251 = AXIS2_PLACEMENT_3D ( 'NONE', #108, #131, #150 ) ;
#252 = CALENDAR_DATE ( 2022, 7, 7 ) ;
#253 = FACE_OUTER_BOUND ( 'NONE', #132, .T. ) ;
#254 = EDGE_LOOP ( 'NONE', ( #62, #189, #167, #4 ) ) ;
#255 = EDGE_CURVE ( 'NONE', #233, #217, #163, .T. ) ;
ENDSEC;
END-ISO-10303-21;
