ISO-10303-21;
HEADER;
FILE_DESCRIPTION (( 'STEP AP203' ),
    '1' );
FILE_NAME ('ccc1.STEP',
    '2022-07-07T17:41:59',
    ( '' ),
    ( '' ),
    'SwSTEP 2.0',
    'SolidWorks 2019',
    '' );
FILE_SCHEMA (( 'CONFIG_CONTROL_DESIGN' ));
ENDSEC;

DATA;
#1 = CYLINDRICAL_SURFACE ( 'NONE', #64, 2.750000000000000000 ) ;
#2 = ORIENTED_EDGE ( 'NONE', *, *, #218, .T. ) ;
#3 = EDGE_CURVE ( 'NONE', #244, #219, #232, .T. ) ;
#4 = AXIS2_PLACEMENT_3D ( 'NONE', #70, #245, #11 ) ;
#5 = VERTEX_POINT ( 'NONE', #226 ) ;
#6 = ORIENTED_EDGE ( 'NONE', *, *, #130, .T. ) ;
#7 = CALENDAR_DATE ( 2022, 7, 7 ) ;
#8 = CARTESIAN_POINT ( 'NONE',  ( 2.750000000000000000, 3.367778697655221012E-16, 318.0000000000000000 ) ) ;
#9 = FACE_OUTER_BOUND ( 'NONE', #80, .T. ) ;
#10 = COORDINATED_UNIVERSAL_TIME_OFFSET ( 1, 0, .AHEAD. ) ;
#11 = DIRECTION ( 'NONE',  ( -1.000000000000000000, 0.000000000000000000, 0.000000000000000000 ) ) ;
#12 = CIRCLE ( 'NONE', #162, 5.000000000000000000 ) ;
#13 = LINE ( 'NONE', #92, #144 ) ;
#14 = CARTESIAN_POINT ( 'NONE',  ( 0.000000000000000000, 0.000000000000000000, 318.0000000000000000 ) ) ;
#15 = CALENDAR_DATE ( 2022, 7, 7 ) ;
#16 = PERSON_AND_ORGANIZATION ( #125, #163 ) ;
#17 =( LENGTH_UNIT ( ) NAMED_UNIT ( * ) SI_UNIT ( .MILLI., .METRE. ) );
#18 = PRODUCT_DEFINITION ( 'NEZNÁMÝ', '', #123, #223 ) ;
#19 = PERSON_AND_ORGANIZATION ( #125, #163 ) ;
#20 = CALENDAR_DATE ( 2022, 7, 7 ) ;
#21 = ORIENTED_EDGE ( 'NONE', *, *, #81, .T. ) ;
#22 = CIRCLE ( 'NONE', #49, 5.000000000000000000 ) ;
#23 = ORIENTED_EDGE ( 'NONE', *, *, #95, .T. ) ;
#24 = PERSON_AND_ORGANIZATION ( #125, #163 ) ;
#25 = PERSON_AND_ORGANIZATION ( #125, #163 ) ;
#26 = DIRECTION ( 'NONE',  ( 1.000000000000000000, 0.000000000000000000, -0.000000000000000000 ) ) ;
#27 = AXIS2_PLACEMENT_3D ( 'NONE', #211, #87, #104 ) ;
#28 = LOCAL_TIME ( 19, 41, 59.00000000000000000, #217 ) ;
#29 = DIRECTION ( 'NONE',  ( 0.000000000000000000, 0.000000000000000000, 1.000000000000000000 ) ) ;
#30 = DIRECTION ( 'NONE',  ( 0.000000000000000000, 0.000000000000000000, 1.000000000000000000 ) ) ;
#31 = CARTESIAN_POINT ( 'NONE',  ( 0.000000000000000000, 0.000000000000000000, 3.000000000000000000 ) ) ;
#32 = CARTESIAN_POINT ( 'NONE',  ( 0.000000000000000000, 0.000000000000000000, 318.0000000000000000 ) ) ;
#33 = CARTESIAN_POINT ( 'NONE',  ( 0.000000000000000000, 0.000000000000000000, 3.000000000000000000 ) ) ;
#34 = EDGE_CURVE ( 'NONE', #5, #219, #12, .T. ) ;
#35 = CARTESIAN_POINT ( 'NONE',  ( 0.000000000000000000, 0.000000000000000000, 318.0000000000000000 ) ) ;
#36 = APPROVAL_STATUS ( 'not_yet_approved' ) ;
#37 = DIRECTION ( 'NONE',  ( 1.000000000000000000, 0.000000000000000000, 0.000000000000000000 ) ) ;
#38 = CC_DESIGN_APPROVAL ( #90, ( #123 ) ) ;
#39 = AXIS2_PLACEMENT_3D ( 'NONE', #239, #253, #37 ) ;
#40 = ORIENTED_EDGE ( 'NONE', *, *, #107, .T. ) ;
#41 = EDGE_LOOP ( 'NONE', ( #201, #120, #23, #240 ) ) ;
#42 = CC_DESIGN_PERSON_AND_ORGANIZATION_ASSIGNMENT ( #24, #231, ( #123 ) ) ;
#43 = VERTEX_POINT ( 'NONE', #172 ) ;
#44 = APPROVAL_DATE_TIME ( #173, #90 ) ;
#45 = ORIENTED_EDGE ( 'NONE', *, *, #34, .T. ) ;
#46 = APPROVAL_ROLE ( '' ) ;
#47 = DIRECTION ( 'NONE',  ( -0.000000000000000000, -0.000000000000000000, -1.000000000000000000 ) ) ;
#48 = LINE ( 'NONE', #248, #103 ) ;
#49 = AXIS2_PLACEMENT_3D ( 'NONE', #31, #109, #212 ) ;
#50 = DIRECTION ( 'NONE',  ( 0.000000000000000000, 0.000000000000000000, 1.000000000000000000 ) ) ;
#51 = CC_DESIGN_PERSON_AND_ORGANIZATION_ASSIGNMENT ( #237, #216, ( #192 ) ) ;
#52 = DIRECTION ( 'NONE',  ( 1.000000000000000000, 0.000000000000000000, 0.000000000000000000 ) ) ;
#53 = AXIS2_PLACEMENT_3D ( 'NONE', #140, #66, #26 ) ;
#54 = CC_DESIGN_APPROVAL ( #171, ( #18 ) ) ;
#55 = DIRECTION ( 'NONE',  ( 1.000000000000000000, 0.000000000000000000, 0.000000000000000000 ) ) ;
#56 =( NAMED_UNIT ( * ) SI_UNIT ( $, .STERADIAN. ) SOLID_ANGLE_UNIT ( ) );
#57 = FACE_OUTER_BOUND ( 'NONE', #41, .T. ) ;
#58 = AXIS2_PLACEMENT_3D ( 'NONE', #68, #148, #193 ) ;
#59 = DIRECTION ( 'NONE',  ( 0.000000000000000000, 0.000000000000000000, 1.000000000000000000 ) ) ;
#60 = AXIS2_PLACEMENT_3D ( 'NONE', #206, #50, #185 ) ;
#61 = CC_DESIGN_APPROVAL ( #184, ( #157 ) ) ;
#62 = EDGE_LOOP ( 'NONE', ( #221, #108 ) ) ;
#63 = VERTEX_POINT ( 'NONE', #127 ) ;
#64 = AXIS2_PLACEMENT_3D ( 'NONE', #76, #132, #195 ) ;
#65 = COORDINATED_UNIVERSAL_TIME_OFFSET ( 1, 0, .AHEAD. ) ;
#66 = DIRECTION ( 'NONE',  ( 0.000000000000000000, 0.000000000000000000, 1.000000000000000000 ) ) ;
#67 = DIRECTION ( 'NONE',  ( 1.000000000000000000, 0.000000000000000000, 0.000000000000000000 ) ) ;
#68 = CARTESIAN_POINT ( 'NONE',  ( 0.000000000000000000, 0.000000000000000000, 3.000000000000000000 ) ) ;
#69 = AXIS2_PLACEMENT_3D ( 'NONE', #32, #110, #194 ) ;
#70 = CARTESIAN_POINT ( 'NONE',  ( 0.000000000000000000, 0.000000000000000000, 3.000000000000000000 ) ) ;
#71 = ADVANCED_FACE ( 'NONE', ( #208 ), #121, .T. ) ;
#72 = FACE_OUTER_BOUND ( 'NONE', #139, .T. ) ;
#73 = COORDINATED_UNIVERSAL_TIME_OFFSET ( 1, 0, .AHEAD. ) ;
#74 = APPROVAL_PERSON_ORGANIZATION ( #247, #184, #46 ) ;
#75 = CIRCLE ( 'NONE', #205, 2.750000000000000000 ) ;
#76 = CARTESIAN_POINT ( 'NONE',  ( 0.000000000000000000, 0.000000000000000000, 318.0000000000000000 ) ) ;
#77 = PRODUCT_RELATED_PRODUCT_CATEGORY ( 'detail', '', ( #192 ) ) ;
#78 = MECHANICAL_CONTEXT ( 'NONE', #215, 'mechanical' ) ;
#79 = UNCERTAINTY_MEASURE_WITH_UNIT (LENGTH_MEASURE( 1.000000000000000082E-05 ), #17, 'distance_accuracy_value', 'NONE');
#80 = EDGE_LOOP ( 'NONE', ( #82, #158, #242, #40 ) ) ;
#81 = EDGE_CURVE ( 'NONE', #102, #63, #180, .T. ) ;
#82 = ORIENTED_EDGE ( 'NONE', *, *, #188, .F. ) ;
#83 = ORIENTED_EDGE ( 'NONE', *, *, #3, .F. ) ;
#84 = DATE_TIME_ROLE ( 'classification_date' ) ;
#85 = LOCAL_TIME ( 19, 41, 59.00000000000000000, #65 ) ;
#86 = FACE_OUTER_BOUND ( 'NONE', #100, .T. ) ;
#87 = DIRECTION ( 'NONE',  ( 0.000000000000000000, 0.000000000000000000, 1.000000000000000000 ) ) ;
#88 = CC_DESIGN_PERSON_AND_ORGANIZATION_ASSIGNMENT ( #101, #143, ( #157 ) ) ;
#89 = LINE ( 'NONE', #129, #174 ) ;
#90 = APPROVAL ( #213, 'NEURÈENÝ' ) ;
#91 = DATE_AND_TIME ( #7, #85 ) ;
#92 = CARTESIAN_POINT ( 'NONE',  ( 5.000000000000000000, 6.123233995736766282E-16, 3.000000000000000000 ) ) ;
#93 = DIRECTION ( 'NONE',  ( 0.000000000000000000, 0.000000000000000000, 1.000000000000000000 ) ) ;
#94 = APPROVAL_PERSON_ORGANIZATION ( #16, #171, #134 ) ;
#95 = EDGE_CURVE ( 'NONE', #43, #63, #48, .T. ) ;
#96 = COORDINATED_UNIVERSAL_TIME_OFFSET ( 1, 0, .AHEAD. ) ;
#97 = DIRECTION ( 'NONE',  ( 0.000000000000000000, 0.000000000000000000, 1.000000000000000000 ) ) ;
#98 = LOCAL_TIME ( 19, 41, 59.00000000000000000, #10 ) ;
#99 = VERTEX_POINT ( 'NONE', #8 ) ;
#100 = EDGE_LOOP ( 'NONE', ( #183, #161, #45, #83 ) ) ;
#101 = PERSON_AND_ORGANIZATION ( #125, #163 ) ;
#102 = VERTEX_POINT ( 'NONE', #191 ) ;
#103 = VECTOR ( 'NONE', #141, 1000.000000000000000 ) ;
#104 = DIRECTION ( 'NONE',  ( 1.000000000000000000, 0.000000000000000000, 0.000000000000000000 ) ) ;
#105 = FACE_BOUND ( 'NONE', #243, .T. ) ;
#106 = CC_DESIGN_PERSON_AND_ORGANIZATION_ASSIGNMENT ( #25, #190, ( #123 ) ) ;
#107 = EDGE_CURVE ( 'NONE', #219, #5, #136, .T. ) ;
#108 = ORIENTED_EDGE ( 'NONE', *, *, #210, .T. ) ;
#109 = DIRECTION ( 'NONE',  ( 0.000000000000000000, 0.000000000000000000, 1.000000000000000000 ) ) ;
#110 = DIRECTION ( 'NONE',  ( -0.000000000000000000, -0.000000000000000000, -1.000000000000000000 ) ) ;
#111 = DATE_AND_TIME ( #20, #28 ) ;
#112 = CC_DESIGN_SECURITY_CLASSIFICATION ( #157, ( #123 ) ) ;
#113 = DIRECTION ( 'NONE',  ( 1.000000000000000000, 0.000000000000000000, 0.000000000000000000 ) ) ;
#114 = APPLICATION_PROTOCOL_DEFINITION ( 'international standard', 'config_control_design', 1994, #159 ) ;
#115 = CALENDAR_DATE ( 2022, 7, 7 ) ;
#116 = LOCAL_TIME ( 19, 41, 59.00000000000000000, #73 ) ;
#117 = CIRCLE ( 'NONE', #228, 2.750000000000000000 ) ;
#118 = ORIENTED_EDGE ( 'NONE', *, *, #238, .F. ) ;
#119 = ADVANCED_FACE ( 'NONE', ( #86 ), #124, .T. ) ;
#120 = ORIENTED_EDGE ( 'NONE', *, *, #214, .F. ) ;
#121 = PLANE ( 'NONE',  #53 ) ;
#122 = AXIS2_PLACEMENT_3D ( 'NONE', #227, #29, #189 ) ;
#123 = PRODUCT_DEFINITION_FORMATION_WITH_SPECIFIED_SOURCE ( 'LIBOVOLNÝ', '', #192, .NOT_KNOWN. ) ;
#124 = CYLINDRICAL_SURFACE ( 'NONE', #4, 5.000000000000000000 ) ;
#125 = PERSON ( 'NEURÈENÝ', 'NEURÈENÝ', 'NEURÈENÝ', ('NEURÈENÝ'), ('NEURÈENÝ'), ('NEURÈENÝ') ) ;
#126 = CALENDAR_DATE ( 2022, 7, 7 ) ;
#127 = CARTESIAN_POINT ( 'NONE',  ( -2.750000000000000000, 0.000000000000000000, 3.000000000000000000 ) ) ;
#128 = FACE_OUTER_BOUND ( 'NONE', #164, .T. ) ;
#129 = CARTESIAN_POINT ( 'NONE',  ( 2.750000000000000000, 3.367778697655221012E-16, 318.0000000000000000 ) ) ;
#130 = EDGE_CURVE ( 'NONE', #99, #102, #89, .T. ) ;
#131 = DIRECTION ( 'NONE',  ( 1.000000000000000000, 0.000000000000000000, 0.000000000000000000 ) ) ;
#132 = DIRECTION ( 'NONE',  ( -0.000000000000000000, -0.000000000000000000, -1.000000000000000000 ) ) ;
#133 = APPLICATION_PROTOCOL_DEFINITION ( 'international standard', 'config_control_design', 1994, #215 ) ;
#134 = APPROVAL_ROLE ( '' ) ;
#135 = ADVANCED_FACE ( 'NONE', ( #105, #169 ), #229, .T. ) ;
#136 = CIRCLE ( 'NONE', #27, 5.000000000000000000 ) ;
#137 = ORIENTED_EDGE ( 'NONE', *, *, #34, .F. ) ;
#138 = EDGE_LOOP ( 'NONE', ( #2, #241 ) ) ;
#139 = EDGE_LOOP ( 'NONE', ( #179, #6, #21, #220 ) ) ;
#140 = CARTESIAN_POINT ( 'NONE',  ( 0.000000000000000000, 0.000000000000000000, 318.0000000000000000 ) ) ;
#141 = DIRECTION ( 'NONE',  ( -0.000000000000000000, -0.000000000000000000, -1.000000000000000000 ) ) ;
#142 = MANIFOLD_SOLID_BREP ( 'Pøidat vysunutím3', #222 ) ;
#143 = PERSON_AND_ORGANIZATION_ROLE ( 'classification_officer' ) ;
#144 = VECTOR ( 'NONE', #249, 1000.000000000000000 ) ;
#145 = CARTESIAN_POINT ( 'NONE',  ( 0.000000000000000000, 0.000000000000000000, 3.000000000000000000 ) ) ;
#146 = CARTESIAN_POINT ( 'NONE',  ( 0.000000000000000000, 0.000000000000000000, 0.000000000000000000 ) ) ;
#147 = ADVANCED_FACE ( 'NONE', ( #128 ), #165, .F. ) ;
#148 = DIRECTION ( 'NONE',  ( -0.000000000000000000, -0.000000000000000000, -1.000000000000000000 ) ) ;
#149 = DIRECTION ( 'NONE',  ( 0.000000000000000000, 0.000000000000000000, 1.000000000000000000 ) ) ;
#150 = LOCAL_TIME ( 19, 41, 59.00000000000000000, #96 ) ;
#151 = CARTESIAN_POINT ( 'NONE',  ( -5.000000000000000000, 0.000000000000000000, 3.000000000000000000 ) ) ;
#152 = DIRECTION ( 'NONE',  ( 0.000000000000000000, 0.000000000000000000, 1.000000000000000000 ) ) ;
#153 = EDGE_CURVE ( 'NONE', #178, #244, #22, .T. ) ;
#154 = APPROVAL_ROLE ( '' ) ;
#155 = ADVANCED_BREP_SHAPE_REPRESENTATION ( 'ccc1', ( #142, #186 ), #207 ) ;
#156 = ORIENTED_EDGE ( 'NONE', *, *, #107, .F. ) ;
#157 = SECURITY_CLASSIFICATION ( '', '', #187 ) ;
#158 = ORIENTED_EDGE ( 'NONE', *, *, #218, .F. ) ;
#159 = APPLICATION_CONTEXT ( 'configuration controlled 3d designs of mechanical parts and assemblies' ) ;
#160 = CC_DESIGN_DATE_AND_TIME_ASSIGNMENT ( #111, #250, ( #18 ) ) ;
#161 = ORIENTED_EDGE ( 'NONE', *, *, #188, .T. ) ;
#162 = AXIS2_PLACEMENT_3D ( 'NONE', #146, #93, #67 ) ;
#163 = ORGANIZATION ( 'NEURÈENÝ', 'NEURÈENÝ', '' ) ;
#164 = EDGE_LOOP ( 'NONE', ( #156, #137 ) ) ;
#165 = PLANE ( 'NONE',  #122 ) ;
#166 = CYLINDRICAL_SURFACE ( 'NONE', #58, 5.000000000000000000 ) ;
#167 = ADVANCED_FACE ( 'NONE', ( #9 ), #166, .T. ) ;
#168 = APPROVAL_DATE_TIME ( #209, #184 ) ;
#169 = FACE_OUTER_BOUND ( 'NONE', #138, .T. ) ;
#170 = CARTESIAN_POINT ( 'NONE',  ( 5.000000000000000000, 6.123233995736766282E-16, 3.000000000000000000 ) ) ;
#171 = APPROVAL ( #36, 'NEURÈENÝ' ) ;
#172 = CARTESIAN_POINT ( 'NONE',  ( -2.750000000000000000, 0.000000000000000000, 318.0000000000000000 ) ) ;
#173 = DATE_AND_TIME ( #15, #116 ) ;
#174 = VECTOR ( 'NONE', #246, 1000.000000000000000 ) ;
#175 = APPROVAL_PERSON_ORGANIZATION ( #254, #90, #154 ) ;
#176 = DATE_AND_TIME ( #115, #150 ) ;
#177 = CARTESIAN_POINT ( 'NONE',  ( 0.000000000000000000, 0.000000000000000000, 0.000000000000000000 ) ) ;
#178 = VERTEX_POINT ( 'NONE', #170 ) ;
#179 = ORIENTED_EDGE ( 'NONE', *, *, #210, .F. ) ;
#180 = CIRCLE ( 'NONE', #198, 2.750000000000000000 ) ;
#181 = AXIS2_PLACEMENT_3D ( 'NONE', #35, #59, #234 ) ;
#182 = ORIENTED_EDGE ( 'NONE', *, *, #81, .F. ) ;
#183 = ORIENTED_EDGE ( 'NONE', *, *, #153, .F. ) ;
#184 = APPROVAL ( #225, 'NEURÈENÝ' ) ;
#185 = DIRECTION ( 'NONE',  ( 1.000000000000000000, 0.000000000000000000, -0.000000000000000000 ) ) ;
#186 = AXIS2_PLACEMENT_3D ( 'NONE', #177, #97, #131 ) ;
#187 = SECURITY_CLASSIFICATION_LEVEL ( 'unclassified' ) ;
#188 = EDGE_CURVE ( 'NONE', #178, #5, #13, .T. ) ;
#189 = DIRECTION ( 'NONE',  ( 1.000000000000000000, 0.000000000000000000, -0.000000000000000000 ) ) ;
#190 = PERSON_AND_ORGANIZATION_ROLE ( 'design_supplier' ) ;
#191 = CARTESIAN_POINT ( 'NONE',  ( 2.750000000000000000, 3.367778697655221012E-16, 3.000000000000000000 ) ) ;
#192 = PRODUCT ( 'ccc1', 'ccc1', '', ( #78 ) ) ;
#193 = DIRECTION ( 'NONE',  ( -1.000000000000000000, 0.000000000000000000, 0.000000000000000000 ) ) ;
#194 = DIRECTION ( 'NONE',  ( -1.000000000000000000, 0.000000000000000000, 0.000000000000000000 ) ) ;
#195 = DIRECTION ( 'NONE',  ( -1.000000000000000000, 0.000000000000000000, 0.000000000000000000 ) ) ;
#196 = APPROVAL_DATE_TIME ( #176, #171 ) ;
#197 = PERSON_AND_ORGANIZATION_ROLE ( 'creator' ) ;
#198 = AXIS2_PLACEMENT_3D ( 'NONE', #145, #30, #52 ) ;
#199 = CIRCLE ( 'NONE', #39, 5.000000000000000000 ) ;
#200 = ADVANCED_FACE ( 'NONE', ( #72 ), #233, .T. ) ;
#201 = ORIENTED_EDGE ( 'NONE', *, *, #130, .F. ) ;
#202 = PRODUCT_DEFINITION_SHAPE ( 'NONE', 'NONE',  #18 ) ;
#203 = CARTESIAN_POINT ( 'NONE',  ( -5.000000000000000000, 0.000000000000000000, 3.000000000000000000 ) ) ;
#204 = VECTOR ( 'NONE', #47, 1000.000000000000000 ) ;
#205 = AXIS2_PLACEMENT_3D ( 'NONE', #14, #149, #113 ) ;
#206 = CARTESIAN_POINT ( 'NONE',  ( 0.000000000000000000, 0.000000000000000000, 3.000000000000000000 ) ) ;
#207 =( GEOMETRIC_REPRESENTATION_CONTEXT ( 3 ) GLOBAL_UNCERTAINTY_ASSIGNED_CONTEXT ( ( #79 ) ) GLOBAL_UNIT_ASSIGNED_CONTEXT ( ( #17, #235, #56 ) ) REPRESENTATION_CONTEXT ( 'NONE', 'WORKASPACE' ) );
#208 = FACE_OUTER_BOUND ( 'NONE', #62, .T. ) ;
#209 = DATE_AND_TIME ( #126, #98 ) ;
#210 = EDGE_CURVE ( 'NONE', #99, #43, #75, .T. ) ;
#211 = CARTESIAN_POINT ( 'NONE',  ( 0.000000000000000000, 0.000000000000000000, 0.000000000000000000 ) ) ;
#212 = DIRECTION ( 'NONE',  ( 1.000000000000000000, 0.000000000000000000, 0.000000000000000000 ) ) ;
#213 = APPROVAL_STATUS ( 'not_yet_approved' ) ;
#214 = EDGE_CURVE ( 'NONE', #43, #99, #251, .T. ) ;
#215 = APPLICATION_CONTEXT ( 'configuration controlled 3d designs of mechanical parts and assemblies' ) ;
#216 = PERSON_AND_ORGANIZATION_ROLE ( 'design_owner' ) ;
#217 = COORDINATED_UNIVERSAL_TIME_OFFSET ( 1, 0, .AHEAD. ) ;
#218 = EDGE_CURVE ( 'NONE', #244, #178, #199, .T. ) ;
#219 = VERTEX_POINT ( 'NONE', #236 ) ;
#220 = ORIENTED_EDGE ( 'NONE', *, *, #95, .F. ) ;
#221 = ORIENTED_EDGE ( 'NONE', *, *, #214, .T. ) ;
#222 = CLOSED_SHELL ( 'NONE', ( #200, #119, #167, #135, #147, #252, #71 ) ) ;
#223 = DESIGN_CONTEXT ( 'detailed design', #159, 'design' ) ;
#224 = SHAPE_DEFINITION_REPRESENTATION ( #202, #155 ) ;
#225 = APPROVAL_STATUS ( 'not_yet_approved' ) ;
#226 = CARTESIAN_POINT ( 'NONE',  ( 5.000000000000000000, 6.123233995736766282E-16, 0.000000000000000000 ) ) ;
#227 = CARTESIAN_POINT ( 'NONE',  ( 0.000000000000000000, 0.000000000000000000, 0.000000000000000000 ) ) ;
#228 = AXIS2_PLACEMENT_3D ( 'NONE', #33, #152, #55 ) ;
#229 = PLANE ( 'NONE',  #60 ) ;
#230 = CC_DESIGN_PERSON_AND_ORGANIZATION_ASSIGNMENT ( #19, #197, ( #18 ) ) ;
#231 = PERSON_AND_ORGANIZATION_ROLE ( 'creator' ) ;
#232 = LINE ( 'NONE', #203, #204 ) ;
#233 = CYLINDRICAL_SURFACE ( 'NONE', #69, 2.750000000000000000 ) ;
#234 = DIRECTION ( 'NONE',  ( 1.000000000000000000, 0.000000000000000000, 0.000000000000000000 ) ) ;
#235 =( NAMED_UNIT ( * ) PLANE_ANGLE_UNIT ( ) SI_UNIT ( $, .RADIAN. ) );
#236 = CARTESIAN_POINT ( 'NONE',  ( -5.000000000000000000, 0.000000000000000000, 0.000000000000000000 ) ) ;
#237 = PERSON_AND_ORGANIZATION ( #125, #163 ) ;
#238 = EDGE_CURVE ( 'NONE', #63, #102, #117, .T. ) ;
#239 = CARTESIAN_POINT ( 'NONE',  ( 0.000000000000000000, 0.000000000000000000, 3.000000000000000000 ) ) ;
#240 = ORIENTED_EDGE ( 'NONE', *, *, #238, .T. ) ;
#241 = ORIENTED_EDGE ( 'NONE', *, *, #153, .T. ) ;
#242 = ORIENTED_EDGE ( 'NONE', *, *, #3, .T. ) ;
#243 = EDGE_LOOP ( 'NONE', ( #118, #182 ) ) ;
#244 = VERTEX_POINT ( 'NONE', #151 ) ;
#245 = DIRECTION ( 'NONE',  ( -0.000000000000000000, -0.000000000000000000, -1.000000000000000000 ) ) ;
#246 = DIRECTION ( 'NONE',  ( -0.000000000000000000, -0.000000000000000000, -1.000000000000000000 ) ) ;
#247 = PERSON_AND_ORGANIZATION ( #125, #163 ) ;
#248 = CARTESIAN_POINT ( 'NONE',  ( -2.750000000000000000, 0.000000000000000000, 318.0000000000000000 ) ) ;
#249 = DIRECTION ( 'NONE',  ( -0.000000000000000000, -0.000000000000000000, -1.000000000000000000 ) ) ;
#250 = DATE_TIME_ROLE ( 'creation_date' ) ;
#251 = CIRCLE ( 'NONE', #181, 2.750000000000000000 ) ;
#252 = ADVANCED_FACE ( 'NONE', ( #57 ), #1, .T. ) ;
#253 = DIRECTION ( 'NONE',  ( 0.000000000000000000, 0.000000000000000000, 1.000000000000000000 ) ) ;
#254 = PERSON_AND_ORGANIZATION ( #125, #163 ) ;
#255 = CC_DESIGN_DATE_AND_TIME_ASSIGNMENT ( #91, #84, ( #157 ) ) ;
ENDSEC;
END-ISO-10303-21;
