ISO-10303-21;
HEADER;
FILE_DESCRIPTION (( 'STEP AP203' ),
    '1' );
FILE_NAME ('987c.STEP',
    '2022-07-07T17:54:19',
    ( '' ),
    ( '' ),
    'SwSTEP 2.0',
    'SolidWorks 2019',
    '' );
FILE_SCHEMA (( 'CONFIG_CONTROL_DESIGN' ));
ENDSEC;

DATA;
#1 = DIRECTION ( 'NONE',  ( -1.000000000000000000, 0.000000000000000000, 0.000000000000000000 ) ) ;
#2 = CARTESIAN_POINT ( 'NONE',  ( 0.000000000000000000, 0.000000000000000000, 0.000000000000000000 ) ) ;
#3 = SECURITY_CLASSIFICATION ( '', '', #219 ) ;
#4 = APPROVAL ( #12, 'NEURÈENÝ' ) ;
#5 = VERTEX_POINT ( 'NONE', #209 ) ;
#6 = APPROVAL_ROLE ( '' ) ;
#7 = VERTEX_POINT ( 'NONE', #73 ) ;
#8 = PERSON_AND_ORGANIZATION ( #96, #97 ) ;
#9 = APPROVAL_DATE_TIME ( #72, #146 ) ;
#10 = DIRECTION ( 'NONE',  ( -0.000000000000000000, -0.000000000000000000, -1.000000000000000000 ) ) ;
#11 = VERTEX_POINT ( 'NONE', #137 ) ;
#12 = APPROVAL_STATUS ( 'not_yet_approved' ) ;
#13 = EDGE_CURVE ( 'NONE', #79, #11, #109, .T. ) ;
#14 = CYLINDRICAL_SURFACE ( 'NONE', #241, 1.600000000000000089 ) ;
#15 = LOCAL_TIME ( 19, 54, 19.00000000000000000, #29 ) ;
#16 = FACE_OUTER_BOUND ( 'NONE', #220, .T. ) ;
#17 = DIRECTION ( 'NONE',  ( 0.000000000000000000, 0.000000000000000000, 1.000000000000000000 ) ) ;
#18 = ORIENTED_EDGE ( 'NONE', *, *, #59, .T. ) ;
#19 = CC_DESIGN_APPROVAL ( #146, ( #24 ) ) ;
#20 = MECHANICAL_CONTEXT ( 'NONE', #253, 'mechanical' ) ;
#21 = CARTESIAN_POINT ( 'NONE',  ( -3.000000000000000444, 0.000000000000000000, 0.000000000000000000 ) ) ;
#22 = DIRECTION ( 'NONE',  ( -1.000000000000000000, 0.000000000000000000, 0.000000000000000000 ) ) ;
#23 = DIRECTION ( 'NONE',  ( 0.000000000000000000, 0.000000000000000000, 1.000000000000000000 ) ) ;
#24 = PRODUCT_DEFINITION_FORMATION_WITH_SPECIFIED_SOURCE ( 'LIBOVOLNÝ', '', #131, .NOT_KNOWN. ) ;
#25 = DESIGN_CONTEXT ( 'detailed design', #65, 'design' ) ;
#26 = CALENDAR_DATE ( 2022, 7, 7 ) ;
#27 = ADVANCED_FACE ( 'NONE', ( #194 ), #138, .F. ) ;
#28 = EDGE_LOOP ( 'NONE', ( #87, #108, #203, #18 ) ) ;
#29 = COORDINATED_UNIVERSAL_TIME_OFFSET ( 1, 0, .AHEAD. ) ;
#30 = DIRECTION ( 'NONE',  ( 0.000000000000000000, 0.000000000000000000, 1.000000000000000000 ) ) ;
#31 = DIRECTION ( 'NONE',  ( 1.000000000000000000, 0.000000000000000000, 0.000000000000000000 ) ) ;
#32 = ORIENTED_EDGE ( 'NONE', *, *, #235, .F. ) ;
#33 = CARTESIAN_POINT ( 'NONE',  ( 0.000000000000000000, 0.000000000000000000, 0.000000000000000000 ) ) ;
#34 = LOCAL_TIME ( 19, 54, 19.00000000000000000, #222 ) ;
#35 = ORIENTED_EDGE ( 'NONE', *, *, #59, .F. ) ;
#36 = ORIENTED_EDGE ( 'NONE', *, *, #235, .T. ) ;
#37 =( LENGTH_UNIT ( ) NAMED_UNIT ( * ) SI_UNIT ( .MILLI., .METRE. ) );
#38 = PLANE ( 'NONE',  #133 ) ;
#39 = DIRECTION ( 'NONE',  ( -1.000000000000000000, 0.000000000000000000, 0.000000000000000000 ) ) ;
#40 = AXIS2_PLACEMENT_3D ( 'NONE', #157, #199, #22 ) ;
#41 = CARTESIAN_POINT ( 'NONE',  ( 0.000000000000000000, 0.000000000000000000, 3.000000000000000000 ) ) ;
#42 = EDGE_CURVE ( 'NONE', #245, #11, #228, .T. ) ;
#43 = CIRCLE ( 'NONE', #254, 3.000000000000000444 ) ;
#44 = CC_DESIGN_DATE_AND_TIME_ASSIGNMENT ( #249, #107, ( #3 ) ) ;
#45 = APPLICATION_PROTOCOL_DEFINITION ( 'international standard', 'config_control_design', 1994, #65 ) ;
#46 = ORIENTED_EDGE ( 'NONE', *, *, #223, .F. ) ;
#47 = ORIENTED_EDGE ( 'NONE', *, *, #204, .F. ) ;
#48 = APPROVAL_DATE_TIME ( #90, #208 ) ;
#49 = AXIS2_PLACEMENT_3D ( 'NONE', #172, #171, #191 ) ;
#50 = PERSON_AND_ORGANIZATION ( #96, #97 ) ;
#51 = CARTESIAN_POINT ( 'NONE',  ( 1.600000000000000089, 1.959434878635765230E-16, 503.0000000000000000 ) ) ;
#52 = CC_DESIGN_PERSON_AND_ORGANIZATION_ASSIGNMENT ( #50, #135, ( #3 ) ) ;
#53 = PERSON_AND_ORGANIZATION_ROLE ( 'design_owner' ) ;
#54 = DIRECTION ( 'NONE',  ( -0.000000000000000000, -0.000000000000000000, -1.000000000000000000 ) ) ;
#55 = DIRECTION ( 'NONE',  ( 0.000000000000000000, 0.000000000000000000, 1.000000000000000000 ) ) ;
#56 = APPROVAL_PERSON_ORGANIZATION ( #83, #146, #6 ) ;
#57 = DIRECTION ( 'NONE',  ( 0.000000000000000000, 0.000000000000000000, 1.000000000000000000 ) ) ;
#58 = ORIENTED_EDGE ( 'NONE', *, *, #126, .T. ) ;
#59 = EDGE_CURVE ( 'NONE', #246, #5, #118, .T. ) ;
#60 = APPLICATION_PROTOCOL_DEFINITION ( 'international standard', 'config_control_design', 1994, #253 ) ;
#61 = CYLINDRICAL_SURFACE ( 'NONE', #78, 3.000000000000000444 ) ;
#62 =( NAMED_UNIT ( * ) PLANE_ANGLE_UNIT ( ) SI_UNIT ( $, .RADIAN. ) );
#63 = AXIS2_PLACEMENT_3D ( 'NONE', #136, #17, #207 ) ;
#64 = LOCAL_TIME ( 19, 54, 19.00000000000000000, #163 ) ;
#65 = APPLICATION_CONTEXT ( 'configuration controlled 3d designs of mechanical parts and assemblies' ) ;
#66 = CC_DESIGN_PERSON_AND_ORGANIZATION_ASSIGNMENT ( #147, #113, ( #117 ) ) ;
#67 = AXIS2_PLACEMENT_3D ( 'NONE', #33, #169, #251 ) ;
#68 = ORIENTED_EDGE ( 'NONE', *, *, #204, .T. ) ;
#69 = PERSON_AND_ORGANIZATION ( #96, #97 ) ;
#70 = CC_DESIGN_DATE_AND_TIME_ASSIGNMENT ( #183, #167, ( #117 ) ) ;
#71 = CARTESIAN_POINT ( 'NONE',  ( 0.000000000000000000, 0.000000000000000000, 0.000000000000000000 ) ) ;
#72 = DATE_AND_TIME ( #93, #15 ) ;
#73 = CARTESIAN_POINT ( 'NONE',  ( -3.000000000000000444, 0.000000000000000000, 3.000000000000000000 ) ) ;
#74 = FACE_OUTER_BOUND ( 'NONE', #129, .T. ) ;
#75 = MANIFOLD_SOLID_BREP ( 'Pøidat vysunutím3', #214 ) ;
#76 = PLANE ( 'NONE',  #122 ) ;
#77 = CYLINDRICAL_SURFACE ( 'NONE', #40, 3.000000000000000444 ) ;
#78 = AXIS2_PLACEMENT_3D ( 'NONE', #41, #124, #1 ) ;
#79 = VERTEX_POINT ( 'NONE', #92 ) ;
#80 = DIRECTION ( 'NONE',  ( 0.000000000000000000, 0.000000000000000000, 1.000000000000000000 ) ) ;
#81 = EDGE_CURVE ( 'NONE', #226, #7, #128, .T. ) ;
#82 = ORIENTED_EDGE ( 'NONE', *, *, #139, .T. ) ;
#83 = PERSON_AND_ORGANIZATION ( #96, #97 ) ;
#84 = LOCAL_TIME ( 19, 54, 19.00000000000000000, #206 ) ;
#85 = PERSON_AND_ORGANIZATION_ROLE ( 'design_supplier' ) ;
#86 = ADVANCED_FACE ( 'NONE', ( #16 ), #94, .T. ) ;
#87 = ORIENTED_EDGE ( 'NONE', *, *, #142, .F. ) ;
#88 = CARTESIAN_POINT ( 'NONE',  ( 0.000000000000000000, 0.000000000000000000, 3.000000000000000000 ) ) ;
#89 = ORIENTED_EDGE ( 'NONE', *, *, #42, .F. ) ;
#90 = DATE_AND_TIME ( #26, #34 ) ;
#91 = AXIS2_PLACEMENT_3D ( 'NONE', #155, #175, #233 ) ;
#92 = CARTESIAN_POINT ( 'NONE',  ( 1.600000000000000089, 1.959434878635765230E-16, 3.000000000000000000 ) ) ;
#93 = CALENDAR_DATE ( 2022, 7, 7 ) ;
#94 = CYLINDRICAL_SURFACE ( 'NONE', #49, 1.600000000000000089 ) ;
#95 = CARTESIAN_POINT ( 'NONE',  ( -1.600000000000000089, 0.000000000000000000, 503.0000000000000000 ) ) ;
#96 = PERSON ( 'NEURÈENÝ', 'NEURÈENÝ', 'NEURÈENÝ', ('NEURÈENÝ'), ('NEURÈENÝ'), ('NEURÈENÝ') ) ;
#97 = ORGANIZATION ( 'NEURÈENÝ', 'NEURÈENÝ', '' ) ;
#98 = AXIS2_PLACEMENT_3D ( 'NONE', #227, #55, #121 ) ;
#99 = DIRECTION ( 'NONE',  ( -0.000000000000000000, -0.000000000000000000, -1.000000000000000000 ) ) ;
#100 = CC_DESIGN_PERSON_AND_ORGANIZATION_ASSIGNMENT ( #69, #151, ( #24 ) ) ;
#101 = FACE_OUTER_BOUND ( 'NONE', #28, .T. ) ;
#102 = AXIS2_PLACEMENT_3D ( 'NONE', #158, #174, #234 ) ;
#103 = CARTESIAN_POINT ( 'NONE',  ( 0.000000000000000000, 0.000000000000000000, 503.0000000000000000 ) ) ;
#104 = ORIENTED_EDGE ( 'NONE', *, *, #223, .T. ) ;
#105 = VERTEX_POINT ( 'NONE', #51 ) ;
#106 = ORIENTED_EDGE ( 'NONE', *, *, #189, .F. ) ;
#107 = DATE_TIME_ROLE ( 'classification_date' ) ;
#108 = ORIENTED_EDGE ( 'NONE', *, *, #161, .F. ) ;
#109 = CIRCLE ( 'NONE', #63, 1.600000000000000089 ) ;
#110 = VECTOR ( 'NONE', #54, 1000.000000000000000 ) ;
#111 = ADVANCED_FACE ( 'NONE', ( #250, #74 ), #76, .T. ) ;
#112 = ORIENTED_EDGE ( 'NONE', *, *, #161, .T. ) ;
#113 = PERSON_AND_ORGANIZATION_ROLE ( 'creator' ) ;
#114 = CARTESIAN_POINT ( 'NONE',  ( 3.000000000000000444, 3.673940397442060361E-16, 3.000000000000000000 ) ) ;
#115 = APPROVAL_STATUS ( 'not_yet_approved' ) ;
#116 = FACE_OUTER_BOUND ( 'NONE', #213, .T. ) ;
#117 = PRODUCT_DEFINITION ( 'NEZNÁMÝ', '', #24, #25 ) ;
#118 = CIRCLE ( 'NONE', #67, 3.000000000000000444 ) ;
#119 = CARTESIAN_POINT ( 'NONE',  ( 0.000000000000000000, 0.000000000000000000, 3.000000000000000000 ) ) ;
#120 = EDGE_LOOP ( 'NONE', ( #35, #32 ) ) ;
#121 = DIRECTION ( 'NONE',  ( 1.000000000000000000, 0.000000000000000000, 0.000000000000000000 ) ) ;
#122 = AXIS2_PLACEMENT_3D ( 'NONE', #152, #210, #134 ) ;
#123 = CC_DESIGN_PERSON_AND_ORGANIZATION_ASSIGNMENT ( #244, #53, ( #131 ) ) ;
#124 = DIRECTION ( 'NONE',  ( -0.000000000000000000, -0.000000000000000000, -1.000000000000000000 ) ) ;
#125 = CARTESIAN_POINT ( 'NONE',  ( 3.000000000000000444, 3.673940397442060361E-16, 3.000000000000000000 ) ) ;
#126 = EDGE_CURVE ( 'NONE', #11, #79, #232, .T. ) ;
#127 = CARTESIAN_POINT ( 'NONE',  ( -3.000000000000000444, 0.000000000000000000, 3.000000000000000000 ) ) ;
#128 = CIRCLE ( 'NONE', #237, 3.000000000000000444 ) ;
#129 = EDGE_LOOP ( 'NONE', ( #112, #217 ) ) ;
#130 = PERSON_AND_ORGANIZATION ( #96, #97 ) ;
#131 = PRODUCT ( '987c', '987c', '', ( #20 ) ) ;
#132 = CALENDAR_DATE ( 2022, 7, 7 ) ;
#133 = AXIS2_PLACEMENT_3D ( 'NONE', #141, #80, #211 ) ;
#134 = DIRECTION ( 'NONE',  ( 1.000000000000000000, 0.000000000000000000, -0.000000000000000000 ) ) ;
#135 = PERSON_AND_ORGANIZATION_ROLE ( 'classification_officer' ) ;
#136 = CARTESIAN_POINT ( 'NONE',  ( 0.000000000000000000, 0.000000000000000000, 3.000000000000000000 ) ) ;
#137 = CARTESIAN_POINT ( 'NONE',  ( -1.600000000000000089, 0.000000000000000000, 3.000000000000000000 ) ) ;
#138 = PLANE ( 'NONE',  #202 ) ;
#139 = EDGE_CURVE ( 'NONE', #245, #105, #181, .T. ) ;
#140 = AXIS2_PLACEMENT_3D ( 'NONE', #205, #57, #195 ) ;
#141 = CARTESIAN_POINT ( 'NONE',  ( 0.000000000000000000, 0.000000000000000000, 503.0000000000000000 ) ) ;
#142 = EDGE_CURVE ( 'NONE', #226, #5, #248, .T. ) ;
#143 =( NAMED_UNIT ( * ) SI_UNIT ( $, .STERADIAN. ) SOLID_ANGLE_UNIT ( ) );
#144 = CARTESIAN_POINT ( 'NONE',  ( 1.600000000000000089, 1.959434878635765230E-16, 503.0000000000000000 ) ) ;
#145 = CC_DESIGN_APPROVAL ( #4, ( #3 ) ) ;
#146 = APPROVAL ( #186, 'NEURÈENÝ' ) ;
#147 = PERSON_AND_ORGANIZATION ( #96, #97 ) ;
#148 = APPROVAL_ROLE ( '' ) ;
#149 = AXIS2_PLACEMENT_3D ( 'NONE', #2, #23, #177 ) ;
#150 = DIRECTION ( 'NONE',  ( 1.000000000000000000, 0.000000000000000000, -0.000000000000000000 ) ) ;
#151 = PERSON_AND_ORGANIZATION_ROLE ( 'creator' ) ;
#152 = CARTESIAN_POINT ( 'NONE',  ( 0.000000000000000000, 0.000000000000000000, 3.000000000000000000 ) ) ;
#153 = VECTOR ( 'NONE', #99, 1000.000000000000000 ) ;
#154 = DIRECTION ( 'NONE',  ( 0.000000000000000000, 0.000000000000000000, 1.000000000000000000 ) ) ;
#155 = CARTESIAN_POINT ( 'NONE',  ( 0.000000000000000000, 0.000000000000000000, 0.000000000000000000 ) ) ;
#156 = LOCAL_TIME ( 19, 54, 19.00000000000000000, #164 ) ;
#157 = CARTESIAN_POINT ( 'NONE',  ( 0.000000000000000000, 0.000000000000000000, 3.000000000000000000 ) ) ;
#158 = CARTESIAN_POINT ( 'NONE',  ( 0.000000000000000000, 0.000000000000000000, 503.0000000000000000 ) ) ;
#159 = FACE_OUTER_BOUND ( 'NONE', #193, .T. ) ;
#160 = APPROVAL_PERSON_ORGANIZATION ( #8, #4, #190 ) ;
#161 = EDGE_CURVE ( 'NONE', #7, #226, #43, .T. ) ;
#162 = VECTOR ( 'NONE', #10, 1000.000000000000000 ) ;
#163 = COORDINATED_UNIVERSAL_TIME_OFFSET ( 1, 0, .AHEAD. ) ;
#164 = COORDINATED_UNIVERSAL_TIME_OFFSET ( 1, 0, .AHEAD. ) ;
#165 = ORIENTED_EDGE ( 'NONE', *, *, #42, .T. ) ;
#166 = DIRECTION ( 'NONE',  ( 0.000000000000000000, 0.000000000000000000, 1.000000000000000000 ) ) ;
#167 = DATE_TIME_ROLE ( 'creation_date' ) ;
#168 = PRODUCT_RELATED_PRODUCT_CATEGORY ( 'detail', '', ( #131 ) ) ;
#169 = DIRECTION ( 'NONE',  ( 0.000000000000000000, 0.000000000000000000, 1.000000000000000000 ) ) ;
#170 = PERSON_AND_ORGANIZATION ( #96, #97 ) ;
#171 = DIRECTION ( 'NONE',  ( -0.000000000000000000, -0.000000000000000000, -1.000000000000000000 ) ) ;
#172 = CARTESIAN_POINT ( 'NONE',  ( 0.000000000000000000, 0.000000000000000000, 503.0000000000000000 ) ) ;
#173 = CC_DESIGN_SECURITY_CLASSIFICATION ( #3, ( #24 ) ) ;
#174 = DIRECTION ( 'NONE',  ( 0.000000000000000000, 0.000000000000000000, 1.000000000000000000 ) ) ;
#175 = DIRECTION ( 'NONE',  ( 0.000000000000000000, 0.000000000000000000, 1.000000000000000000 ) ) ;
#176 = CC_DESIGN_APPROVAL ( #208, ( #117 ) ) ;
#177 = DIRECTION ( 'NONE',  ( 1.000000000000000000, 0.000000000000000000, 0.000000000000000000 ) ) ;
#178 = ADVANCED_FACE ( 'NONE', ( #116 ), #14, .T. ) ;
#179 = ADVANCED_FACE ( 'NONE', ( #236 ), #38, .T. ) ;
#180 = CALENDAR_DATE ( 2022, 7, 7 ) ;
#181 = CIRCLE ( 'NONE', #140, 1.600000000000000089 ) ;
#182 = ORIENTED_EDGE ( 'NONE', *, *, #139, .F. ) ;
#183 = DATE_AND_TIME ( #247, #64 ) ;
#184 = EDGE_LOOP ( 'NONE', ( #185, #221 ) ) ;
#185 = ORIENTED_EDGE ( 'NONE', *, *, #126, .F. ) ;
#186 = APPROVAL_STATUS ( 'not_yet_approved' ) ;
#187 = ORIENTED_EDGE ( 'NONE', *, *, #13, .T. ) ;
#188 = ORIENTED_EDGE ( 'NONE', *, *, #142, .T. ) ;
#189 = EDGE_CURVE ( 'NONE', #7, #246, #212, .T. ) ;
#190 = APPROVAL_ROLE ( '' ) ;
#191 = DIRECTION ( 'NONE',  ( -1.000000000000000000, 0.000000000000000000, 0.000000000000000000 ) ) ;
#192 = APPROVAL_DATE_TIME ( #225, #4 ) ;
#193 = EDGE_LOOP ( 'NONE', ( #240, #188, #36, #106 ) ) ;
#194 = FACE_OUTER_BOUND ( 'NONE', #120, .T. ) ;
#195 = DIRECTION ( 'NONE',  ( 1.000000000000000000, 0.000000000000000000, 0.000000000000000000 ) ) ;
#196 =( GEOMETRIC_REPRESENTATION_CONTEXT ( 3 ) GLOBAL_UNCERTAINTY_ASSIGNED_CONTEXT ( ( #229 ) ) GLOBAL_UNIT_ASSIGNED_CONTEXT ( ( #37, #62, #143 ) ) REPRESENTATION_CONTEXT ( 'NONE', 'WORKASPACE' ) );
#197 = DIRECTION ( 'NONE',  ( -0.000000000000000000, -0.000000000000000000, -1.000000000000000000 ) ) ;
#198 = CIRCLE ( 'NONE', #149, 3.000000000000000444 ) ;
#199 = DIRECTION ( 'NONE',  ( -0.000000000000000000, -0.000000000000000000, -1.000000000000000000 ) ) ;
#200 = ADVANCED_BREP_SHAPE_REPRESENTATION ( '987c', ( #75, #91 ), #196 ) ;
#201 = VECTOR ( 'NONE', #215, 1000.000000000000000 ) ;
#202 = AXIS2_PLACEMENT_3D ( 'NONE', #71, #154, #150 ) ;
#203 = ORIENTED_EDGE ( 'NONE', *, *, #189, .T. ) ;
#204 = EDGE_CURVE ( 'NONE', #105, #245, #238, .T. ) ;
#205 = CARTESIAN_POINT ( 'NONE',  ( 0.000000000000000000, 0.000000000000000000, 503.0000000000000000 ) ) ;
#206 = COORDINATED_UNIVERSAL_TIME_OFFSET ( 1, 0, .AHEAD. ) ;
#207 = DIRECTION ( 'NONE',  ( 1.000000000000000000, 0.000000000000000000, 0.000000000000000000 ) ) ;
#208 = APPROVAL ( #115, 'NEURÈENÝ' ) ;
#209 = CARTESIAN_POINT ( 'NONE',  ( 3.000000000000000444, 3.673940397442060361E-16, 0.000000000000000000 ) ) ;
#210 = DIRECTION ( 'NONE',  ( 0.000000000000000000, 0.000000000000000000, 1.000000000000000000 ) ) ;
#211 = DIRECTION ( 'NONE',  ( 1.000000000000000000, 0.000000000000000000, -0.000000000000000000 ) ) ;
#212 = LINE ( 'NONE', #127, #201 ) ;
#213 = EDGE_LOOP ( 'NONE', ( #47, #104, #187, #89 ) ) ;
#214 = CLOSED_SHELL ( 'NONE', ( #178, #216, #252, #111, #27, #86, #179 ) ) ;
#215 = DIRECTION ( 'NONE',  ( -0.000000000000000000, -0.000000000000000000, -1.000000000000000000 ) ) ;
#216 = ADVANCED_FACE ( 'NONE', ( #159 ), #77, .T. ) ;
#217 = ORIENTED_EDGE ( 'NONE', *, *, #81, .T. ) ;
#218 = APPROVAL_PERSON_ORGANIZATION ( #130, #208, #148 ) ;
#219 = SECURITY_CLASSIFICATION_LEVEL ( 'unclassified' ) ;
#220 = EDGE_LOOP ( 'NONE', ( #46, #182, #165, #58 ) ) ;
#221 = ORIENTED_EDGE ( 'NONE', *, *, #13, .F. ) ;
#222 = COORDINATED_UNIVERSAL_TIME_OFFSET ( 1, 0, .AHEAD. ) ;
#223 = EDGE_CURVE ( 'NONE', #105, #79, #255, .T. ) ;
#224 = DIRECTION ( 'NONE',  ( 1.000000000000000000, 0.000000000000000000, 0.000000000000000000 ) ) ;
#225 = DATE_AND_TIME ( #132, #156 ) ;
#226 = VERTEX_POINT ( 'NONE', #125 ) ;
#227 = CARTESIAN_POINT ( 'NONE',  ( 0.000000000000000000, 0.000000000000000000, 3.000000000000000000 ) ) ;
#228 = LINE ( 'NONE', #95, #110 ) ;
#229 = UNCERTAINTY_MEASURE_WITH_UNIT (LENGTH_MEASURE( 1.000000000000000082E-05 ), #37, 'distance_accuracy_value', 'NONE');
#230 = EDGE_LOOP ( 'NONE', ( #82, #68 ) ) ;
#231 = CARTESIAN_POINT ( 'NONE',  ( -1.600000000000000089, 0.000000000000000000, 503.0000000000000000 ) ) ;
#232 = CIRCLE ( 'NONE', #98, 1.600000000000000089 ) ;
#233 = DIRECTION ( 'NONE',  ( 1.000000000000000000, 0.000000000000000000, 0.000000000000000000 ) ) ;
#234 = DIRECTION ( 'NONE',  ( 1.000000000000000000, 0.000000000000000000, 0.000000000000000000 ) ) ;
#235 = EDGE_CURVE ( 'NONE', #5, #246, #198, .T. ) ;
#236 = FACE_OUTER_BOUND ( 'NONE', #230, .T. ) ;
#237 = AXIS2_PLACEMENT_3D ( 'NONE', #119, #30, #224 ) ;
#238 = CIRCLE ( 'NONE', #102, 1.600000000000000089 ) ;
#239 = PRODUCT_DEFINITION_SHAPE ( 'NONE', 'NONE',  #117 ) ;
#240 = ORIENTED_EDGE ( 'NONE', *, *, #81, .F. ) ;
#241 = AXIS2_PLACEMENT_3D ( 'NONE', #103, #197, #39 ) ;
#242 = CC_DESIGN_PERSON_AND_ORGANIZATION_ASSIGNMENT ( #170, #85, ( #24 ) ) ;
#243 = SHAPE_DEFINITION_REPRESENTATION ( #239, #200 ) ;
#244 = PERSON_AND_ORGANIZATION ( #96, #97 ) ;
#245 = VERTEX_POINT ( 'NONE', #231 ) ;
#246 = VERTEX_POINT ( 'NONE', #21 ) ;
#247 = CALENDAR_DATE ( 2022, 7, 7 ) ;
#248 = LINE ( 'NONE', #114, #162 ) ;
#249 = DATE_AND_TIME ( #180, #84 ) ;
#250 = FACE_BOUND ( 'NONE', #184, .T. ) ;
#251 = DIRECTION ( 'NONE',  ( 1.000000000000000000, 0.000000000000000000, 0.000000000000000000 ) ) ;
#252 = ADVANCED_FACE ( 'NONE', ( #101 ), #61, .T. ) ;
#253 = APPLICATION_CONTEXT ( 'configuration controlled 3d designs of mechanical parts and assemblies' ) ;
#254 = AXIS2_PLACEMENT_3D ( 'NONE', #88, #166, #31 ) ;
#255 = LINE ( 'NONE', #144, #153 ) ;
ENDSEC;
END-ISO-10303-21;
