ISO-10303-21;
HEADER;
FILE_DESCRIPTION (( 'STEP AP203' ),
    '1' );
FILE_NAME ('b792.STEP',
    '2022-07-07T17:40:33',
    ( '' ),
    ( '' ),
    'SwSTEP 2.0',
    'SolidWorks 2019',
    '' );
FILE_SCHEMA (( 'CONFIG_CONTROL_DESIGN' ));
ENDSEC;

DATA;
#1 = CYLINDRICAL_SURFACE ( 'NONE', #87, 3.000000000000000444 ) ;
#2 = CARTESIAN_POINT ( 'NONE',  ( 0.000000000000000000, 0.000000000000000000, 5.000000000000000000 ) ) ;
#3 = APPLICATION_CONTEXT ( 'configuration controlled 3d designs of mechanical parts and assemblies' ) ;
#4 = ORIENTED_EDGE ( 'NONE', *, *, #174, .F. ) ;
#5 = LINE ( 'NONE', #222, #252 ) ;
#6 = CC_DESIGN_APPROVAL ( #77, ( #173 ) ) ;
#7 = ORIENTED_EDGE ( 'NONE', *, *, #52, .F. ) ;
#8 = PRODUCT_DEFINITION ( 'NEZNÁMÝ', '', #159, #91 ) ;
#9 = LINE ( 'NONE', #66, #166 ) ;
#10 = VERTEX_POINT ( 'NONE', #161 ) ;
#11 = CARTESIAN_POINT ( 'NONE',  ( 0.000000000000000000, 0.000000000000000000, 5.000000000000000000 ) ) ;
#12 = CIRCLE ( 'NONE', #94, 3.000000000000000444 ) ;
#13 = DIRECTION ( 'NONE',  ( 0.000000000000000000, 0.000000000000000000, 1.000000000000000000 ) ) ;
#14 = AXIS2_PLACEMENT_3D ( 'NONE', #140, #49, #80 ) ;
#15 = CARTESIAN_POINT ( 'NONE',  ( 0.000000000000000000, 0.000000000000000000, 320.0000000000000000 ) ) ;
#16 = COORDINATED_UNIVERSAL_TIME_OFFSET ( 1, 0, .AHEAD. ) ;
#17 =( LENGTH_UNIT ( ) NAMED_UNIT ( * ) SI_UNIT ( .MILLI., .METRE. ) );
#18 = ADVANCED_FACE ( 'NONE', ( #226, #84 ), #202, .T. ) ;
#19 = APPROVAL_ROLE ( '' ) ;
#20 = DIRECTION ( 'NONE',  ( 1.000000000000000000, 0.000000000000000000, 0.000000000000000000 ) ) ;
#21 = DIRECTION ( 'NONE',  ( 0.000000000000000000, 0.000000000000000000, 1.000000000000000000 ) ) ;
#22 = APPLICATION_CONTEXT ( 'configuration controlled 3d designs of mechanical parts and assemblies' ) ;
#23 = DIRECTION ( 'NONE',  ( 1.000000000000000000, 0.000000000000000000, 0.000000000000000000 ) ) ;
#24 = CARTESIAN_POINT ( 'NONE',  ( -3.000000000000000444, 0.000000000000000000, 320.0000000000000000 ) ) ;
#25 = CARTESIAN_POINT ( 'NONE',  ( 0.000000000000000000, 0.000000000000000000, 5.000000000000000000 ) ) ;
#26 = CARTESIAN_POINT ( 'NONE',  ( 6.000000000000000888, 7.347880794884120722E-16, 5.000000000000000000 ) ) ;
#27 = EDGE_LOOP ( 'NONE', ( #46, #117, #88, #137 ) ) ;
#28 = DIRECTION ( 'NONE',  ( 0.000000000000000000, 0.000000000000000000, 1.000000000000000000 ) ) ;
#29 = APPROVAL_PERSON_ORGANIZATION ( #192, #77, #207 ) ;
#30 = ORIENTED_EDGE ( 'NONE', *, *, #174, .T. ) ;
#31 = DATE_AND_TIME ( #230, #135 ) ;
#32 = PERSON_AND_ORGANIZATION ( #106, #114 ) ;
#33 = EDGE_CURVE ( 'NONE', #105, #97, #98, .T. ) ;
#34 = APPROVAL_DATE_TIME ( #209, #205 ) ;
#35 = COORDINATED_UNIVERSAL_TIME_OFFSET ( 1, 0, .AHEAD. ) ;
#36 = CARTESIAN_POINT ( 'NONE',  ( 0.000000000000000000, 0.000000000000000000, 0.000000000000000000 ) ) ;
#37 = PERSON_AND_ORGANIZATION_ROLE ( 'design_owner' ) ;
#38 = UNCERTAINTY_MEASURE_WITH_UNIT (LENGTH_MEASURE( 1.000000000000000082E-05 ), #17, 'distance_accuracy_value', 'NONE');
#39 = AXIS2_PLACEMENT_3D ( 'NONE', #2, #179, #122 ) ;
#40 = DIRECTION ( 'NONE',  ( 0.000000000000000000, 0.000000000000000000, 1.000000000000000000 ) ) ;
#41 = APPROVAL_PERSON_ORGANIZATION ( #108, #205, #58 ) ;
#42 = CC_DESIGN_PERSON_AND_ORGANIZATION_ASSIGNMENT ( #214, #37, ( #124 ) ) ;
#43 = CARTESIAN_POINT ( 'NONE',  ( 0.000000000000000000, 0.000000000000000000, 0.000000000000000000 ) ) ;
#44 = EDGE_LOOP ( 'NONE', ( #51, #241 ) ) ;
#45 = CARTESIAN_POINT ( 'NONE',  ( 0.000000000000000000, 0.000000000000000000, 5.000000000000000000 ) ) ;
#46 = ORIENTED_EDGE ( 'NONE', *, *, #71, .F. ) ;
#47 = AXIS2_PLACEMENT_3D ( 'NONE', #43, #99, #155 ) ;
#48 = CYLINDRICAL_SURFACE ( 'NONE', #187, 6.000000000000000888 ) ;
#49 = DIRECTION ( 'NONE',  ( 0.000000000000000000, 0.000000000000000000, 1.000000000000000000 ) ) ;
#50 = CYLINDRICAL_SURFACE ( 'NONE', #39, 6.000000000000000888 ) ;
#51 = ORIENTED_EDGE ( 'NONE', *, *, #33, .T. ) ;
#52 = EDGE_CURVE ( 'NONE', #10, #181, #245, .T. ) ;
#53 = AXIS2_PLACEMENT_3D ( 'NONE', #136, #101, #225 ) ;
#54 = CC_DESIGN_SECURITY_CLASSIFICATION ( #173, ( #159 ) ) ;
#55 = VERTEX_POINT ( 'NONE', #61 ) ;
#56 = ADVANCED_FACE ( 'NONE', ( #118 ), #48, .T. ) ;
#57 = MECHANICAL_CONTEXT ( 'NONE', #3, 'mechanical' ) ;
#58 = APPROVAL_ROLE ( '' ) ;
#59 = CIRCLE ( 'NONE', #69, 3.000000000000000444 ) ;
#60 = ADVANCED_FACE ( 'NONE', ( #177 ), #157, .F. ) ;
#61 = CARTESIAN_POINT ( 'NONE',  ( 3.000000000000000444, 3.673940397442060361E-16, 5.000000000000000000 ) ) ;
#62 =( GEOMETRIC_REPRESENTATION_CONTEXT ( 3 ) GLOBAL_UNCERTAINTY_ASSIGNED_CONTEXT ( ( #38 ) ) GLOBAL_UNIT_ASSIGNED_CONTEXT ( ( #17, #113, #72 ) ) REPRESENTATION_CONTEXT ( 'NONE', 'WORKASPACE' ) );
#63 = DIRECTION ( 'NONE',  ( 1.000000000000000000, 0.000000000000000000, -0.000000000000000000 ) ) ;
#64 = ORIENTED_EDGE ( 'NONE', *, *, #235, .F. ) ;
#65 = DIRECTION ( 'NONE',  ( -0.000000000000000000, -0.000000000000000000, -1.000000000000000000 ) ) ;
#66 = CARTESIAN_POINT ( 'NONE',  ( -6.000000000000000888, 0.000000000000000000, 5.000000000000000000 ) ) ;
#67 = CIRCLE ( 'NONE', #104, 3.000000000000000444 ) ;
#68 = CC_DESIGN_PERSON_AND_ORGANIZATION_ASSIGNMENT ( #32, #232, ( #159 ) ) ;
#69 = AXIS2_PLACEMENT_3D ( 'NONE', #45, #28, #103 ) ;
#70 = ORIENTED_EDGE ( 'NONE', *, *, #228, .T. ) ;
#71 = EDGE_CURVE ( 'NONE', #231, #181, #83, .T. ) ;
#72 =( NAMED_UNIT ( * ) SI_UNIT ( $, .STERADIAN. ) SOLID_ANGLE_UNIT ( ) );
#73 = CIRCLE ( 'NONE', #217, 6.000000000000000888 ) ;
#74 = APPROVAL_STATUS ( 'not_yet_approved' ) ;
#75 = DIRECTION ( 'NONE',  ( -1.000000000000000000, 0.000000000000000000, 0.000000000000000000 ) ) ;
#76 = CARTESIAN_POINT ( 'NONE',  ( 0.000000000000000000, 0.000000000000000000, 0.000000000000000000 ) ) ;
#77 = APPROVAL ( #194, 'NEURÈENÝ' ) ;
#78 = AXIS2_PLACEMENT_3D ( 'NONE', #76, #212, #191 ) ;
#79 = DIRECTION ( 'NONE',  ( -1.000000000000000000, 0.000000000000000000, 0.000000000000000000 ) ) ;
#80 = DIRECTION ( 'NONE',  ( 1.000000000000000000, 0.000000000000000000, 0.000000000000000000 ) ) ;
#81 = DIRECTION ( 'NONE',  ( -0.000000000000000000, -0.000000000000000000, -1.000000000000000000 ) ) ;
#82 = ORIENTED_EDGE ( 'NONE', *, *, #133, .T. ) ;
#83 = LINE ( 'NONE', #26, #154 ) ;
#84 = FACE_OUTER_BOUND ( 'NONE', #123, .T. ) ;
#85 = CARTESIAN_POINT ( 'NONE',  ( 0.000000000000000000, 0.000000000000000000, 320.0000000000000000 ) ) ;
#86 = EDGE_CURVE ( 'NONE', #246, #10, #9, .T. ) ;
#87 = AXIS2_PLACEMENT_3D ( 'NONE', #85, #244, #79 ) ;
#88 = ORIENTED_EDGE ( 'NONE', *, *, #86, .T. ) ;
#89 = CALENDAR_DATE ( 2022, 7, 7 ) ;
#90 = CALENDAR_DATE ( 2022, 7, 7 ) ;
#91 = DESIGN_CONTEXT ( 'detailed design', #22, 'design' ) ;
#92 = CALENDAR_DATE ( 2022, 7, 7 ) ;
#93 = EDGE_CURVE ( 'NONE', #97, #105, #12, .T. ) ;
#94 = AXIS2_PLACEMENT_3D ( 'NONE', #180, #116, #142 ) ;
#95 = CC_DESIGN_DATE_AND_TIME_ASSIGNMENT ( #107, #151, ( #173 ) ) ;
#96 = DIRECTION ( 'NONE',  ( -0.000000000000000000, -0.000000000000000000, -1.000000000000000000 ) ) ;
#97 = VERTEX_POINT ( 'NONE', #238 ) ;
#98 = CIRCLE ( 'NONE', #14, 3.000000000000000444 ) ;
#99 = DIRECTION ( 'NONE',  ( 0.000000000000000000, 0.000000000000000000, 1.000000000000000000 ) ) ;
#100 = ORIENTED_EDGE ( 'NONE', *, *, #183, .F. ) ;
#101 = DIRECTION ( 'NONE',  ( 0.000000000000000000, 0.000000000000000000, 1.000000000000000000 ) ) ;
#102 = ORIENTED_EDGE ( 'NONE', *, *, #86, .F. ) ;
#103 = DIRECTION ( 'NONE',  ( 1.000000000000000000, 0.000000000000000000, 0.000000000000000000 ) ) ;
#104 = AXIS2_PLACEMENT_3D ( 'NONE', #170, #21, #20 ) ;
#105 = VERTEX_POINT ( 'NONE', #24 ) ;
#106 = PERSON ( 'NEURÈENÝ', 'NEURÈENÝ', 'NEURÈENÝ', ('NEURÈENÝ'), ('NEURÈENÝ'), ('NEURÈENÝ') ) ;
#107 = DATE_AND_TIME ( #152, #190 ) ;
#108 = PERSON_AND_ORGANIZATION ( #106, #114 ) ;
#109 = SECURITY_CLASSIFICATION_LEVEL ( 'unclassified' ) ;
#110 = PERSON_AND_ORGANIZATION ( #106, #114 ) ;
#111 = PERSON_AND_ORGANIZATION_ROLE ( 'creator' ) ;
#112 = CC_DESIGN_DATE_AND_TIME_ASSIGNMENT ( #150, #130, ( #8 ) ) ;
#113 =( NAMED_UNIT ( * ) PLANE_ANGLE_UNIT ( ) SI_UNIT ( $, .RADIAN. ) );
#114 = ORGANIZATION ( 'NEURÈENÝ', 'NEURÈENÝ', '' ) ;
#115 = ADVANCED_FACE ( 'NONE', ( #203 ), #50, .T. ) ;
#116 = DIRECTION ( 'NONE',  ( 0.000000000000000000, 0.000000000000000000, 1.000000000000000000 ) ) ;
#117 = ORIENTED_EDGE ( 'NONE', *, *, #228, .F. ) ;
#118 = FACE_OUTER_BOUND ( 'NONE', #27, .T. ) ;
#119 = ORIENTED_EDGE ( 'NONE', *, *, #71, .T. ) ;
#120 = FACE_OUTER_BOUND ( 'NONE', #208, .T. ) ;
#121 = CC_DESIGN_PERSON_AND_ORGANIZATION_ASSIGNMENT ( #126, #131, ( #173 ) ) ;
#122 = DIRECTION ( 'NONE',  ( -1.000000000000000000, 0.000000000000000000, 0.000000000000000000 ) ) ;
#123 = EDGE_LOOP ( 'NONE', ( #70, #82 ) ) ;
#124 = PRODUCT ( 'b792', 'b792', '', ( #57 ) ) ;
#125 = EDGE_LOOP ( 'NONE', ( #7, #199 ) ) ;
#126 = PERSON_AND_ORGANIZATION ( #106, #114 ) ;
#127 = APPLICATION_PROTOCOL_DEFINITION ( 'international standard', 'config_control_design', 1994, #3 ) ;
#128 = ADVANCED_FACE ( 'NONE', ( #220 ), #237, .T. ) ;
#129 = PERSON_AND_ORGANIZATION ( #106, #114 ) ;
#130 = DATE_TIME_ROLE ( 'creation_date' ) ;
#131 = PERSON_AND_ORGANIZATION_ROLE ( 'classification_officer' ) ;
#132 = COORDINATED_UNIVERSAL_TIME_OFFSET ( 1, 0, .AHEAD. ) ;
#133 = EDGE_CURVE ( 'NONE', #231, #246, #73, .T. ) ;
#134 = CARTESIAN_POINT ( 'NONE',  ( 6.000000000000000888, 7.347880794884120722E-16, 0.000000000000000000 ) ) ;
#135 = LOCAL_TIME ( 19, 40, 33.00000000000000000, #35 ) ;
#136 = CARTESIAN_POINT ( 'NONE',  ( 0.000000000000000000, 0.000000000000000000, 0.000000000000000000 ) ) ;
#137 = ORIENTED_EDGE ( 'NONE', *, *, #52, .T. ) ;
#138 = DIRECTION ( 'NONE',  ( 0.000000000000000000, 0.000000000000000000, 1.000000000000000000 ) ) ;
#139 = CC_DESIGN_PERSON_AND_ORGANIZATION_ASSIGNMENT ( #110, #111, ( #8 ) ) ;
#140 = CARTESIAN_POINT ( 'NONE',  ( 0.000000000000000000, 0.000000000000000000, 320.0000000000000000 ) ) ;
#141 = AXIS2_PLACEMENT_3D ( 'NONE', #25, #13, #167 ) ;
#142 = DIRECTION ( 'NONE',  ( 1.000000000000000000, 0.000000000000000000, 0.000000000000000000 ) ) ;
#143 = ORIENTED_EDGE ( 'NONE', *, *, #93, .F. ) ;
#144 = AXIS2_PLACEMENT_3D ( 'NONE', #36, #251, #196 ) ;
#145 = MANIFOLD_SOLID_BREP ( 'Pøidat vysunutím3', #156 ) ;
#146 = APPROVAL_DATE_TIME ( #149, #77 ) ;
#147 = AXIS2_PLACEMENT_3D ( 'NONE', #15, #171, #75 ) ;
#148 = VERTEX_POINT ( 'NONE', #164 ) ;
#149 = DATE_AND_TIME ( #92, #184 ) ;
#150 = DATE_AND_TIME ( #90, #253 ) ;
#151 = DATE_TIME_ROLE ( 'classification_date' ) ;
#152 = CALENDAR_DATE ( 2022, 7, 7 ) ;
#153 = DIRECTION ( 'NONE',  ( 1.000000000000000000, 0.000000000000000000, 0.000000000000000000 ) ) ;
#154 = VECTOR ( 'NONE', #162, 1000.000000000000000 ) ;
#155 = DIRECTION ( 'NONE',  ( 1.000000000000000000, 0.000000000000000000, -0.000000000000000000 ) ) ;
#156 = CLOSED_SHELL ( 'NONE', ( #186, #115, #56, #18, #60, #175, #128 ) ) ;
#157 = PLANE ( 'NONE',  #47 ) ;
#158 = ORIENTED_EDGE ( 'NONE', *, *, #183, .T. ) ;
#159 = PRODUCT_DEFINITION_FORMATION_WITH_SPECIFIED_SOURCE ( 'LIBOVOLNÝ', '', #124, .NOT_KNOWN. ) ;
#160 = LINE ( 'NONE', #240, #236 ) ;
#161 = CARTESIAN_POINT ( 'NONE',  ( -6.000000000000000888, 0.000000000000000000, 0.000000000000000000 ) ) ;
#162 = DIRECTION ( 'NONE',  ( -0.000000000000000000, -0.000000000000000000, -1.000000000000000000 ) ) ;
#163 = ORIENTED_EDGE ( 'NONE', *, *, #169, .F. ) ;
#164 = CARTESIAN_POINT ( 'NONE',  ( -3.000000000000000444, 0.000000000000000000, 5.000000000000000000 ) ) ;
#165 = AXIS2_PLACEMENT_3D ( 'NONE', #188, #40, #153 ) ;
#166 = VECTOR ( 'NONE', #218, 1000.000000000000000 ) ;
#167 = DIRECTION ( 'NONE',  ( 1.000000000000000000, 0.000000000000000000, -0.000000000000000000 ) ) ;
#168 = CARTESIAN_POINT ( 'NONE',  ( 6.000000000000000888, 7.347880794884120722E-16, 5.000000000000000000 ) ) ;
#169 = EDGE_CURVE ( 'NONE', #55, #148, #59, .T. ) ;
#170 = CARTESIAN_POINT ( 'NONE',  ( 0.000000000000000000, 0.000000000000000000, 5.000000000000000000 ) ) ;
#171 = DIRECTION ( 'NONE',  ( -0.000000000000000000, -0.000000000000000000, -1.000000000000000000 ) ) ;
#172 = APPLICATION_PROTOCOL_DEFINITION ( 'international standard', 'config_control_design', 1994, #22 ) ;
#173 = SECURITY_CLASSIFICATION ( '', '', #109 ) ;
#174 = EDGE_CURVE ( 'NONE', #105, #148, #5, .T. ) ;
#175 = ADVANCED_FACE ( 'NONE', ( #182 ), #1, .T. ) ;
#176 = CIRCLE ( 'NONE', #165, 6.000000000000000888 ) ;
#177 = FACE_OUTER_BOUND ( 'NONE', #125, .T. ) ;
#178 = ORIENTED_EDGE ( 'NONE', *, *, #33, .F. ) ;
#179 = DIRECTION ( 'NONE',  ( -0.000000000000000000, -0.000000000000000000, -1.000000000000000000 ) ) ;
#180 = CARTESIAN_POINT ( 'NONE',  ( 0.000000000000000000, 0.000000000000000000, 320.0000000000000000 ) ) ;
#181 = VERTEX_POINT ( 'NONE', #134 ) ;
#182 = FACE_OUTER_BOUND ( 'NONE', #239, .T. ) ;
#183 = EDGE_CURVE ( 'NONE', #97, #55, #160, .T. ) ;
#184 = LOCAL_TIME ( 19, 40, 33.00000000000000000, #16 ) ;
#185 = EDGE_LOOP ( 'NONE', ( #206, #119, #221, #102 ) ) ;
#186 = ADVANCED_FACE ( 'NONE', ( #120 ), #234, .T. ) ;
#187 = AXIS2_PLACEMENT_3D ( 'NONE', #242, #96, #201 ) ;
#188 = CARTESIAN_POINT ( 'NONE',  ( 0.000000000000000000, 0.000000000000000000, 5.000000000000000000 ) ) ;
#189 = ADVANCED_BREP_SHAPE_REPRESENTATION ( 'b792', ( #145, #144 ), #62 ) ;
#190 = LOCAL_TIME ( 19, 40, 33.00000000000000000, #248 ) ;
#191 = DIRECTION ( 'NONE',  ( 1.000000000000000000, 0.000000000000000000, 0.000000000000000000 ) ) ;
#192 = PERSON_AND_ORGANIZATION ( #106, #114 ) ;
#193 = COORDINATED_UNIVERSAL_TIME_OFFSET ( 1, 0, .AHEAD. ) ;
#194 = APPROVAL_STATUS ( 'not_yet_approved' ) ;
#195 = CARTESIAN_POINT ( 'NONE',  ( -6.000000000000000888, 0.000000000000000000, 5.000000000000000000 ) ) ;
#196 = DIRECTION ( 'NONE',  ( 1.000000000000000000, 0.000000000000000000, 0.000000000000000000 ) ) ;
#197 = EDGE_CURVE ( 'NONE', #181, #10, #227, .T. ) ;
#198 = CARTESIAN_POINT ( 'NONE',  ( 0.000000000000000000, 0.000000000000000000, 320.0000000000000000 ) ) ;
#199 = ORIENTED_EDGE ( 'NONE', *, *, #197, .F. ) ;
#200 = PRODUCT_DEFINITION_SHAPE ( 'NONE', 'NONE',  #8 ) ;
#201 = DIRECTION ( 'NONE',  ( -1.000000000000000000, 0.000000000000000000, 0.000000000000000000 ) ) ;
#202 = PLANE ( 'NONE',  #141 ) ;
#203 = FACE_OUTER_BOUND ( 'NONE', #185, .T. ) ;
#204 = DIRECTION ( 'NONE',  ( 0.000000000000000000, 0.000000000000000000, 1.000000000000000000 ) ) ;
#205 = APPROVAL ( #254, 'NEURÈENÝ' ) ;
#206 = ORIENTED_EDGE ( 'NONE', *, *, #133, .F. ) ;
#207 = APPROVAL_ROLE ( '' ) ;
#208 = EDGE_LOOP ( 'NONE', ( #143, #158, #243, #4 ) ) ;
#209 = DATE_AND_TIME ( #89, #247 ) ;
#210 = PERSON_AND_ORGANIZATION ( #106, #114 ) ;
#211 = SHAPE_DEFINITION_REPRESENTATION ( #200, #189 ) ;
#212 = DIRECTION ( 'NONE',  ( 0.000000000000000000, 0.000000000000000000, 1.000000000000000000 ) ) ;
#213 = CC_DESIGN_PERSON_AND_ORGANIZATION_ASSIGNMENT ( #129, #249, ( #159 ) ) ;
#214 = PERSON_AND_ORGANIZATION ( #106, #114 ) ;
#215 = APPROVAL_PERSON_ORGANIZATION ( #210, #250, #19 ) ;
#216 = PRODUCT_RELATED_PRODUCT_CATEGORY ( 'detail', '', ( #124 ) ) ;
#217 = AXIS2_PLACEMENT_3D ( 'NONE', #11, #204, #23 ) ;
#218 = DIRECTION ( 'NONE',  ( -0.000000000000000000, -0.000000000000000000, -1.000000000000000000 ) ) ;
#219 = ORIENTED_EDGE ( 'NONE', *, *, #235, .T. ) ;
#220 = FACE_OUTER_BOUND ( 'NONE', #44, .T. ) ;
#221 = ORIENTED_EDGE ( 'NONE', *, *, #197, .T. ) ;
#222 = CARTESIAN_POINT ( 'NONE',  ( -3.000000000000000444, 0.000000000000000000, 320.0000000000000000 ) ) ;
#223 = EDGE_LOOP ( 'NONE', ( #64, #163 ) ) ;
#224 = AXIS2_PLACEMENT_3D ( 'NONE', #198, #138, #63 ) ;
#225 = DIRECTION ( 'NONE',  ( 1.000000000000000000, 0.000000000000000000, 0.000000000000000000 ) ) ;
#226 = FACE_BOUND ( 'NONE', #223, .T. ) ;
#227 = CIRCLE ( 'NONE', #78, 6.000000000000000888 ) ;
#228 = EDGE_CURVE ( 'NONE', #246, #231, #176, .T. ) ;
#229 = CC_DESIGN_APPROVAL ( #250, ( #159 ) ) ;
#230 = CALENDAR_DATE ( 2022, 7, 7 ) ;
#231 = VERTEX_POINT ( 'NONE', #168 ) ;
#232 = PERSON_AND_ORGANIZATION_ROLE ( 'creator' ) ;
#233 = APPROVAL_DATE_TIME ( #31, #250 ) ;
#234 = CYLINDRICAL_SURFACE ( 'NONE', #147, 3.000000000000000444 ) ;
#235 = EDGE_CURVE ( 'NONE', #148, #55, #67, .T. ) ;
#236 = VECTOR ( 'NONE', #65, 1000.000000000000000 ) ;
#237 = PLANE ( 'NONE',  #224 ) ;
#238 = CARTESIAN_POINT ( 'NONE',  ( 3.000000000000000444, 3.673940397442060361E-16, 320.0000000000000000 ) ) ;
#239 = EDGE_LOOP ( 'NONE', ( #100, #178, #30, #219 ) ) ;
#240 = CARTESIAN_POINT ( 'NONE',  ( 3.000000000000000444, 3.673940397442060361E-16, 320.0000000000000000 ) ) ;
#241 = ORIENTED_EDGE ( 'NONE', *, *, #93, .T. ) ;
#242 = CARTESIAN_POINT ( 'NONE',  ( 0.000000000000000000, 0.000000000000000000, 5.000000000000000000 ) ) ;
#243 = ORIENTED_EDGE ( 'NONE', *, *, #169, .T. ) ;
#244 = DIRECTION ( 'NONE',  ( -0.000000000000000000, -0.000000000000000000, -1.000000000000000000 ) ) ;
#245 = CIRCLE ( 'NONE', #53, 6.000000000000000888 ) ;
#246 = VERTEX_POINT ( 'NONE', #195 ) ;
#247 = LOCAL_TIME ( 19, 40, 33.00000000000000000, #132 ) ;
#248 = COORDINATED_UNIVERSAL_TIME_OFFSET ( 1, 0, .AHEAD. ) ;
#249 = PERSON_AND_ORGANIZATION_ROLE ( 'design_supplier' ) ;
#250 = APPROVAL ( #74, 'NEURÈENÝ' ) ;
#251 = DIRECTION ( 'NONE',  ( 0.000000000000000000, 0.000000000000000000, 1.000000000000000000 ) ) ;
#252 = VECTOR ( 'NONE', #81, 1000.000000000000000 ) ;
#253 = LOCAL_TIME ( 19, 40, 33.00000000000000000, #193 ) ;
#254 = APPROVAL_STATUS ( 'not_yet_approved' ) ;
#255 = CC_DESIGN_APPROVAL ( #205, ( #8 ) ) ;
ENDSEC;
END-ISO-10303-21;
