ISO-10303-21;
HEADER;
FILE_DESCRIPTION (( 'STEP AP203' ),
    '1' );
FILE_NAME ('ff21.STEP',
    '2022-07-07T17:57:44',
    ( '' ),
    ( '' ),
    'SwSTEP 2.0',
    'SolidWorks 2019',
    '' );
FILE_SCHEMA (( 'CONFIG_CONTROL_DESIGN' ));
ENDSEC;

DATA;
#1 = ORIENTED_EDGE ( 'NONE', *, *, #82, .F. ) ;
#2 = ORIENTED_EDGE ( 'NONE', *, *, #82, .T. ) ;
#3 = EDGE_CURVE ( 'NONE', #147, #77, #44, .T. ) ;
#4 = EDGE_CURVE ( 'NONE', #183, #167, #212, .T. ) ;
#5 = DIRECTION ( 'NONE',  ( -0.000000000000000000, -0.000000000000000000, -1.000000000000000000 ) ) ;
#6 = DIRECTION ( 'NONE',  ( 1.000000000000000000, 0.000000000000000000, 0.000000000000000000 ) ) ;
#7 = ORIENTED_EDGE ( 'NONE', *, *, #25, .F. ) ;
#8 = LOCAL_TIME ( 19, 57, 44.00000000000000000, #177 ) ;
#9 = FACE_OUTER_BOUND ( 'NONE', #171, .T. ) ;
#10 = APPROVAL ( #226, 'NEURÈENÝ' ) ;
#11 = PLANE ( 'NONE',  #109 ) ;
#12 = CARTESIAN_POINT ( 'NONE',  ( 2.500000000000000000, 3.061616997868383141E-16, 2.000000000000000000 ) ) ;
#13 = LINE ( 'NONE', #249, #194 ) ;
#14 = DIRECTION ( 'NONE',  ( 1.000000000000000000, 0.000000000000000000, 0.000000000000000000 ) ) ;
#15 = PERSON_AND_ORGANIZATION_ROLE ( 'creator' ) ;
#16 = PRODUCT_DEFINITION_FORMATION_WITH_SPECIFIED_SOURCE ( 'LIBOVOLNÝ', '', #137, .NOT_KNOWN. ) ;
#17 = CALENDAR_DATE ( 2022, 7, 7 ) ;
#18 = ORIENTED_EDGE ( 'NONE', *, *, #155, .F. ) ;
#19 = CIRCLE ( 'NONE', #168, 2.500000000000000000 ) ;
#20 = EDGE_LOOP ( 'NONE', ( #127, #118, #215, #101 ) ) ;
#21 = ORGANIZATION ( 'NEURÈENÝ', 'NEURÈENÝ', '' ) ;
#22 = EDGE_LOOP ( 'NONE', ( #124, #196 ) ) ;
#23 = AXIS2_PLACEMENT_3D ( 'NONE', #223, #201, #90 ) ;
#24 = VERTEX_POINT ( 'NONE', #185 ) ;
#25 = EDGE_CURVE ( 'NONE', #24, #147, #19, .T. ) ;
#26 = PLANE ( 'NONE',  #211 ) ;
#27 = DIRECTION ( 'NONE',  ( -1.000000000000000000, 0.000000000000000000, 0.000000000000000000 ) ) ;
#28 = DIRECTION ( 'NONE',  ( 1.000000000000000000, 0.000000000000000000, -0.000000000000000000 ) ) ;
#29 = DIRECTION ( 'NONE',  ( -0.000000000000000000, -0.000000000000000000, -1.000000000000000000 ) ) ;
#30 = CARTESIAN_POINT ( 'NONE',  ( 1.250000000000000000, 1.530808498934191571E-16, 2.000000000000000000 ) ) ;
#31 = DATE_TIME_ROLE ( 'creation_date' ) ;
#32 = LINE ( 'NONE', #12, #122 ) ;
#33 = DIRECTION ( 'NONE',  ( 1.000000000000000000, 0.000000000000000000, 0.000000000000000000 ) ) ;
#34 = PERSON_AND_ORGANIZATION ( #240, #21 ) ;
#35 = APPROVAL ( #119, 'NEURÈENÝ' ) ;
#36 = PERSON_AND_ORGANIZATION ( #240, #21 ) ;
#37 = CALENDAR_DATE ( 2022, 7, 7 ) ;
#38 = EDGE_CURVE ( 'NONE', #96, #128, #170, .T. ) ;
#39 = EDGE_CURVE ( 'NONE', #183, #128, #13, .T. ) ;
#40 = ORIENTED_EDGE ( 'NONE', *, *, #149, .F. ) ;
#41 = ORIENTED_EDGE ( 'NONE', *, *, #120, .T. ) ;
#42 = DIRECTION ( 'NONE',  ( 1.000000000000000000, 0.000000000000000000, 0.000000000000000000 ) ) ;
#43 = PRODUCT_DEFINITION_SHAPE ( 'NONE', 'NONE',  #98 ) ;
#44 = LINE ( 'NONE', #207, #75 ) ;
#45 = CARTESIAN_POINT ( 'NONE',  ( 0.000000000000000000, 0.000000000000000000, 0.000000000000000000 ) ) ;
#46 = DIRECTION ( 'NONE',  ( 0.000000000000000000, 0.000000000000000000, 1.000000000000000000 ) ) ;
#47 = CARTESIAN_POINT ( 'NONE',  ( -1.250000000000000000, 0.000000000000000000, 402.0000000000000000 ) ) ;
#48 = AXIS2_PLACEMENT_3D ( 'NONE', #153, #138, #174 ) ;
#49 = DIRECTION ( 'NONE',  ( -0.000000000000000000, -0.000000000000000000, -1.000000000000000000 ) ) ;
#50 = EDGE_CURVE ( 'NONE', #167, #96, #225, .T. ) ;
#51 = DIRECTION ( 'NONE',  ( -0.000000000000000000, -0.000000000000000000, -1.000000000000000000 ) ) ;
#52 = CYLINDRICAL_SURFACE ( 'NONE', #237, 2.500000000000000000 ) ;
#53 = APPROVAL_ROLE ( '' ) ;
#54 = APPLICATION_PROTOCOL_DEFINITION ( 'international standard', 'config_control_design', 1994, #148 ) ;
#55 = DATE_AND_TIME ( #179, #239 ) ;
#56 = AXIS2_PLACEMENT_3D ( 'NONE', #186, #227, #80 ) ;
#57 = ORIENTED_EDGE ( 'NONE', *, *, #58, .F. ) ;
#58 = EDGE_CURVE ( 'NONE', #128, #96, #222, .T. ) ;
#59 = LOCAL_TIME ( 19, 57, 44.00000000000000000, #255 ) ;
#60 = CC_DESIGN_DATE_AND_TIME_ASSIGNMENT ( #55, #31, ( #98 ) ) ;
#61 = MANIFOLD_SOLID_BREP ( 'Pøidat vysunutím3', #216 ) ;
#62 = CARTESIAN_POINT ( 'NONE',  ( 0.000000000000000000, 0.000000000000000000, 402.0000000000000000 ) ) ;
#63 = CARTESIAN_POINT ( 'NONE',  ( 0.000000000000000000, 0.000000000000000000, 2.000000000000000000 ) ) ;
#64 = PLANE ( 'NONE',  #48 ) ;
#65 = DIRECTION ( 'NONE',  ( 1.000000000000000000, 0.000000000000000000, -0.000000000000000000 ) ) ;
#66 = LOCAL_TIME ( 19, 57, 44.00000000000000000, #236 ) ;
#67 = DIRECTION ( 'NONE',  ( 0.000000000000000000, 0.000000000000000000, 1.000000000000000000 ) ) ;
#68 =( LENGTH_UNIT ( ) NAMED_UNIT ( * ) SI_UNIT ( .MILLI., .METRE. ) );
#69 = PERSON_AND_ORGANIZATION ( #240, #21 ) ;
#70 =( NAMED_UNIT ( * ) SI_UNIT ( $, .STERADIAN. ) SOLID_ANGLE_UNIT ( ) );
#71 = DATE_AND_TIME ( #164, #8 ) ;
#72 = CIRCLE ( 'NONE', #219, 1.250000000000000000 ) ;
#73 = APPROVAL_PERSON_ORGANIZATION ( #36, #214, #53 ) ;
#74 = PERSON_AND_ORGANIZATION_ROLE ( 'creator' ) ;
#75 = VECTOR ( 'NONE', #49, 1000.000000000000000 ) ;
#76 = LOCAL_TIME ( 19, 57, 44.00000000000000000, #178 ) ;
#77 = VERTEX_POINT ( 'NONE', #169 ) ;
#78 = EDGE_LOOP ( 'NONE', ( #40, #1, #84, #41 ) ) ;
#79 = ADVANCED_FACE ( 'NONE', ( #205, #241 ), #26, .T. ) ;
#80 = DIRECTION ( 'NONE',  ( 1.000000000000000000, 0.000000000000000000, 0.000000000000000000 ) ) ;
#81 = CIRCLE ( 'NONE', #234, 2.500000000000000000 ) ;
#82 = EDGE_CURVE ( 'NONE', #147, #24, #81, .T. ) ;
#83 = DIRECTION ( 'NONE',  ( 1.000000000000000000, 0.000000000000000000, 0.000000000000000000 ) ) ;
#84 = ORIENTED_EDGE ( 'NONE', *, *, #3, .T. ) ;
#85 = EDGE_LOOP ( 'NONE', ( #7, #103, #245, #203 ) ) ;
#86 = MECHANICAL_CONTEXT ( 'NONE', #134, 'mechanical' ) ;
#87 = CARTESIAN_POINT ( 'NONE',  ( 0.000000000000000000, 0.000000000000000000, 402.0000000000000000 ) ) ;
#88 = ADVANCED_BREP_SHAPE_REPRESENTATION ( 'ff21', ( #61, #111 ), #102 ) ;
#89 = CARTESIAN_POINT ( 'NONE',  ( 1.250000000000000000, 1.530808498934191571E-16, 402.0000000000000000 ) ) ;
#90 = DIRECTION ( 'NONE',  ( 1.000000000000000000, 0.000000000000000000, 0.000000000000000000 ) ) ;
#91 = CC_DESIGN_PERSON_AND_ORGANIZATION_ASSIGNMENT ( #34, #197, ( #16 ) ) ;
#92 = DIRECTION ( 'NONE',  ( 0.000000000000000000, 0.000000000000000000, 1.000000000000000000 ) ) ;
#93 = APPROVAL_DATE_TIME ( #97, #35 ) ;
#94 = FACE_OUTER_BOUND ( 'NONE', #180, .T. ) ;
#95 = SHAPE_DEFINITION_REPRESENTATION ( #43, #88 ) ;
#96 = VERTEX_POINT ( 'NONE', #30 ) ;
#97 = DATE_AND_TIME ( #117, #59 ) ;
#98 = PRODUCT_DEFINITION ( 'NEZNÁMÝ', '', #16, #224 ) ;
#99 = APPROVAL_PERSON_ORGANIZATION ( #156, #10, #210 ) ;
#100 = EDGE_CURVE ( 'NONE', #167, #183, #72, .T. ) ;
#101 = ORIENTED_EDGE ( 'NONE', *, *, #39, .F. ) ;
#102 =( GEOMETRIC_REPRESENTATION_CONTEXT ( 3 ) GLOBAL_UNCERTAINTY_ASSIGNED_CONTEXT ( ( #192 ) ) GLOBAL_UNIT_ASSIGNED_CONTEXT ( ( #68, #158, #70 ) ) REPRESENTATION_CONTEXT ( 'NONE', 'WORKASPACE' ) );
#103 = ORIENTED_EDGE ( 'NONE', *, *, #149, .T. ) ;
#104 = ORIENTED_EDGE ( 'NONE', *, *, #39, .T. ) ;
#105 = CIRCLE ( 'NONE', #23, 2.500000000000000000 ) ;
#106 = CARTESIAN_POINT ( 'NONE',  ( 0.000000000000000000, 0.000000000000000000, 402.0000000000000000 ) ) ;
#107 = DIRECTION ( 'NONE',  ( 0.000000000000000000, 0.000000000000000000, 1.000000000000000000 ) ) ;
#108 = VERTEX_POINT ( 'NONE', #189 ) ;
#109 = AXIS2_PLACEMENT_3D ( 'NONE', #87, #173, #65 ) ;
#110 = DIRECTION ( 'NONE',  ( -0.000000000000000000, -0.000000000000000000, -1.000000000000000000 ) ) ;
#111 = AXIS2_PLACEMENT_3D ( 'NONE', #232, #92, #14 ) ;
#112 = CARTESIAN_POINT ( 'NONE',  ( 0.000000000000000000, 0.000000000000000000, 2.000000000000000000 ) ) ;
#113 = ADVANCED_FACE ( 'NONE', ( #157 ), #11, .T. ) ;
#114 = CARTESIAN_POINT ( 'NONE',  ( 0.000000000000000000, 0.000000000000000000, 402.0000000000000000 ) ) ;
#115 = APPROVAL_ROLE ( '' ) ;
#116 = AXIS2_PLACEMENT_3D ( 'NONE', #247, #132, #202 ) ;
#117 = CALENDAR_DATE ( 2022, 7, 7 ) ;
#118 = ORIENTED_EDGE ( 'NONE', *, *, #50, .T. ) ;
#119 = APPROVAL_STATUS ( 'not_yet_approved' ) ;
#120 = EDGE_CURVE ( 'NONE', #77, #108, #105, .T. ) ;
#121 = DATE_AND_TIME ( #17, #66 ) ;
#122 = VECTOR ( 'NONE', #231, 1000.000000000000000 ) ;
#123 = CC_DESIGN_APPROVAL ( #35, ( #16 ) ) ;
#124 = ORIENTED_EDGE ( 'NONE', *, *, #4, .T. ) ;
#125 = ORIENTED_EDGE ( 'NONE', *, *, #50, .F. ) ;
#126 = AXIS2_PLACEMENT_3D ( 'NONE', #106, #152, #243 ) ;
#127 = ORIENTED_EDGE ( 'NONE', *, *, #100, .F. ) ;
#128 = VERTEX_POINT ( 'NONE', #191 ) ;
#129 = CC_DESIGN_DATE_AND_TIME_ASSIGNMENT ( #71, #143, ( #165 ) ) ;
#130 = PRODUCT_RELATED_PRODUCT_CATEGORY ( 'detail', '', ( #137 ) ) ;
#131 = CARTESIAN_POINT ( 'NONE',  ( 0.000000000000000000, 0.000000000000000000, 2.000000000000000000 ) ) ;
#132 = DIRECTION ( 'NONE',  ( 0.000000000000000000, 0.000000000000000000, 1.000000000000000000 ) ) ;
#133 = EDGE_LOOP ( 'NONE', ( #2, #238 ) ) ;
#134 = APPLICATION_CONTEXT ( 'configuration controlled 3d designs of mechanical parts and assemblies' ) ;
#135 = DIRECTION ( 'NONE',  ( 0.000000000000000000, 0.000000000000000000, 1.000000000000000000 ) ) ;
#136 = CARTESIAN_POINT ( 'NONE',  ( 1.250000000000000000, 1.530808498934191571E-16, 402.0000000000000000 ) ) ;
#137 = PRODUCT ( 'ff21', 'ff21', '', ( #86 ) ) ;
#138 = DIRECTION ( 'NONE',  ( 0.000000000000000000, 0.000000000000000000, 1.000000000000000000 ) ) ;
#139 = DIRECTION ( 'NONE',  ( 0.000000000000000000, 0.000000000000000000, 1.000000000000000000 ) ) ;
#140 = DIRECTION ( 'NONE',  ( -1.000000000000000000, 0.000000000000000000, 0.000000000000000000 ) ) ;
#141 = DIRECTION ( 'NONE',  ( -1.000000000000000000, 0.000000000000000000, 0.000000000000000000 ) ) ;
#142 = DATE_AND_TIME ( #37, #76 ) ;
#143 = DATE_TIME_ROLE ( 'classification_date' ) ;
#144 = CIRCLE ( 'NONE', #150, 2.500000000000000000 ) ;
#145 = ADVANCED_FACE ( 'NONE', ( #175 ), #230, .T. ) ;
#146 = EDGE_LOOP ( 'NONE', ( #57, #199 ) ) ;
#147 = VERTEX_POINT ( 'NONE', #208 ) ;
#148 = APPLICATION_CONTEXT ( 'configuration controlled 3d designs of mechanical parts and assemblies' ) ;
#149 = EDGE_CURVE ( 'NONE', #24, #108, #32, .T. ) ;
#150 = AXIS2_PLACEMENT_3D ( 'NONE', #45, #135, #33 ) ;
#151 = AXIS2_PLACEMENT_3D ( 'NONE', #62, #51, #141 ) ;
#152 = DIRECTION ( 'NONE',  ( 0.000000000000000000, 0.000000000000000000, 1.000000000000000000 ) ) ;
#153 = CARTESIAN_POINT ( 'NONE',  ( 0.000000000000000000, 0.000000000000000000, 0.000000000000000000 ) ) ;
#154 = DIRECTION ( 'NONE',  ( -0.000000000000000000, -0.000000000000000000, -1.000000000000000000 ) ) ;
#155 = EDGE_CURVE ( 'NONE', #108, #77, #144, .T. ) ;
#156 = PERSON_AND_ORGANIZATION ( #240, #21 ) ;
#157 = FACE_OUTER_BOUND ( 'NONE', #22, .T. ) ;
#158 =( NAMED_UNIT ( * ) PLANE_ANGLE_UNIT ( ) SI_UNIT ( $, .RADIAN. ) );
#159 = ORIENTED_EDGE ( 'NONE', *, *, #58, .T. ) ;
#160 = FACE_OUTER_BOUND ( 'NONE', #78, .T. ) ;
#161 = PERSON_AND_ORGANIZATION_ROLE ( 'classification_officer' ) ;
#162 = PERSON_AND_ORGANIZATION ( #240, #21 ) ;
#163 = APPROVAL_STATUS ( 'not_yet_approved' ) ;
#164 = CALENDAR_DATE ( 2022, 7, 7 ) ;
#165 = SECURITY_CLASSIFICATION ( '', '', #251 ) ;
#166 = ORIENTED_EDGE ( 'NONE', *, *, #120, .F. ) ;
#167 = VERTEX_POINT ( 'NONE', #89 ) ;
#168 = AXIS2_PLACEMENT_3D ( 'NONE', #63, #46, #42 ) ;
#169 = CARTESIAN_POINT ( 'NONE',  ( -2.500000000000000000, 0.000000000000000000, 0.000000000000000000 ) ) ;
#170 = CIRCLE ( 'NONE', #56, 1.250000000000000000 ) ;
#171 = EDGE_LOOP ( 'NONE', ( #166, #18 ) ) ;
#172 = PERSON_AND_ORGANIZATION_ROLE ( 'design_owner' ) ;
#173 = DIRECTION ( 'NONE',  ( 0.000000000000000000, 0.000000000000000000, 1.000000000000000000 ) ) ;
#174 = DIRECTION ( 'NONE',  ( 1.000000000000000000, 0.000000000000000000, -0.000000000000000000 ) ) ;
#175 = FACE_OUTER_BOUND ( 'NONE', #20, .T. ) ;
#176 = ADVANCED_FACE ( 'NONE', ( #160 ), #206, .T. ) ;
#177 = COORDINATED_UNIVERSAL_TIME_OFFSET ( 1, 0, .AHEAD. ) ;
#178 = COORDINATED_UNIVERSAL_TIME_OFFSET ( 1, 0, .AHEAD. ) ;
#179 = CALENDAR_DATE ( 2022, 7, 7 ) ;
#180 = EDGE_LOOP ( 'NONE', ( #125, #244, #104, #159 ) ) ;
#181 = VECTOR ( 'NONE', #5, 1000.000000000000000 ) ;
#182 = CC_DESIGN_APPROVAL ( #214, ( #165 ) ) ;
#183 = VERTEX_POINT ( 'NONE', #47 ) ;
#184 = AXIS2_PLACEMENT_3D ( 'NONE', #250, #110, #204 ) ;
#185 = CARTESIAN_POINT ( 'NONE',  ( 2.500000000000000000, 3.061616997868383141E-16, 2.000000000000000000 ) ) ;
#186 = CARTESIAN_POINT ( 'NONE',  ( 0.000000000000000000, 0.000000000000000000, 2.000000000000000000 ) ) ;
#187 = CC_DESIGN_APPROVAL ( #10, ( #98 ) ) ;
#188 = FACE_OUTER_BOUND ( 'NONE', #85, .T. ) ;
#189 = CARTESIAN_POINT ( 'NONE',  ( 2.500000000000000000, 3.061616997868383141E-16, 0.000000000000000000 ) ) ;
#190 = CARTESIAN_POINT ( 'NONE',  ( 0.000000000000000000, 0.000000000000000000, 2.000000000000000000 ) ) ;
#191 = CARTESIAN_POINT ( 'NONE',  ( -1.250000000000000000, 0.000000000000000000, 2.000000000000000000 ) ) ;
#192 = UNCERTAINTY_MEASURE_WITH_UNIT (LENGTH_MEASURE( 1.000000000000000082E-05 ), #68, 'distance_accuracy_value', 'NONE');
#193 = COORDINATED_UNIVERSAL_TIME_OFFSET ( 1, 0, .AHEAD. ) ;
#194 = VECTOR ( 'NONE', #154, 1000.000000000000000 ) ;
#195 = PERSON_AND_ORGANIZATION ( #240, #21 ) ;
#196 = ORIENTED_EDGE ( 'NONE', *, *, #100, .T. ) ;
#197 = PERSON_AND_ORGANIZATION_ROLE ( 'design_supplier' ) ;
#198 = APPROVAL_DATE_TIME ( #142, #10 ) ;
#199 = ORIENTED_EDGE ( 'NONE', *, *, #38, .F. ) ;
#200 = ADVANCED_FACE ( 'NONE', ( #9 ), #64, .F. ) ;
#201 = DIRECTION ( 'NONE',  ( 0.000000000000000000, 0.000000000000000000, 1.000000000000000000 ) ) ;
#202 = DIRECTION ( 'NONE',  ( 1.000000000000000000, 0.000000000000000000, 0.000000000000000000 ) ) ;
#203 = ORIENTED_EDGE ( 'NONE', *, *, #3, .F. ) ;
#204 = DIRECTION ( 'NONE',  ( -1.000000000000000000, 0.000000000000000000, 0.000000000000000000 ) ) ;
#205 = FACE_BOUND ( 'NONE', #146, .T. ) ;
#206 = CYLINDRICAL_SURFACE ( 'NONE', #184, 2.500000000000000000 ) ;
#207 = CARTESIAN_POINT ( 'NONE',  ( -2.500000000000000000, 0.000000000000000000, 2.000000000000000000 ) ) ;
#208 = CARTESIAN_POINT ( 'NONE',  ( -2.500000000000000000, 0.000000000000000000, 2.000000000000000000 ) ) ;
#209 = APPLICATION_PROTOCOL_DEFINITION ( 'international standard', 'config_control_design', 1994, #134 ) ;
#210 = APPROVAL_ROLE ( '' ) ;
#211 = AXIS2_PLACEMENT_3D ( 'NONE', #131, #107, #28 ) ;
#212 = CIRCLE ( 'NONE', #126, 1.250000000000000000 ) ;
#213 = PERSON_AND_ORGANIZATION ( #240, #21 ) ;
#214 = APPROVAL ( #163, 'NEURÈENÝ' ) ;
#215 = ORIENTED_EDGE ( 'NONE', *, *, #38, .T. ) ;
#216 = CLOSED_SHELL ( 'NONE', ( #145, #235, #176, #79, #200, #252, #113 ) ) ;
#217 = APPROVAL_PERSON_ORGANIZATION ( #195, #35, #115 ) ;
#218 = CC_DESIGN_PERSON_AND_ORGANIZATION_ASSIGNMENT ( #162, #172, ( #137 ) ) ;
#219 = AXIS2_PLACEMENT_3D ( 'NONE', #114, #67, #83 ) ;
#220 = CC_DESIGN_SECURITY_CLASSIFICATION ( #165, ( #16 ) ) ;
#221 = CC_DESIGN_PERSON_AND_ORGANIZATION_ASSIGNMENT ( #69, #15, ( #98 ) ) ;
#222 = CIRCLE ( 'NONE', #116, 1.250000000000000000 ) ;
#223 = CARTESIAN_POINT ( 'NONE',  ( 0.000000000000000000, 0.000000000000000000, 0.000000000000000000 ) ) ;
#224 = DESIGN_CONTEXT ( 'detailed design', #148, 'design' ) ;
#225 = LINE ( 'NONE', #136, #181 ) ;
#226 = APPROVAL_STATUS ( 'not_yet_approved' ) ;
#227 = DIRECTION ( 'NONE',  ( 0.000000000000000000, 0.000000000000000000, 1.000000000000000000 ) ) ;
#228 = AXIS2_PLACEMENT_3D ( 'NONE', #246, #29, #27 ) ;
#229 = CC_DESIGN_PERSON_AND_ORGANIZATION_ASSIGNMENT ( #254, #74, ( #16 ) ) ;
#230 = CYLINDRICAL_SURFACE ( 'NONE', #151, 1.250000000000000000 ) ;
#231 = DIRECTION ( 'NONE',  ( -0.000000000000000000, -0.000000000000000000, -1.000000000000000000 ) ) ;
#232 = CARTESIAN_POINT ( 'NONE',  ( 0.000000000000000000, 0.000000000000000000, 0.000000000000000000 ) ) ;
#233 = APPROVAL_DATE_TIME ( #121, #214 ) ;
#234 = AXIS2_PLACEMENT_3D ( 'NONE', #112, #139, #6 ) ;
#235 = ADVANCED_FACE ( 'NONE', ( #188 ), #52, .T. ) ;
#236 = COORDINATED_UNIVERSAL_TIME_OFFSET ( 1, 0, .AHEAD. ) ;
#237 = AXIS2_PLACEMENT_3D ( 'NONE', #190, #253, #140 ) ;
#238 = ORIENTED_EDGE ( 'NONE', *, *, #25, .T. ) ;
#239 = LOCAL_TIME ( 19, 57, 44.00000000000000000, #193 ) ;
#240 = PERSON ( 'NEURÈENÝ', 'NEURÈENÝ', 'NEURÈENÝ', ('NEURÈENÝ'), ('NEURÈENÝ'), ('NEURÈENÝ') ) ;
#241 = FACE_OUTER_BOUND ( 'NONE', #133, .T. ) ;
#242 = CC_DESIGN_PERSON_AND_ORGANIZATION_ASSIGNMENT ( #213, #161, ( #165 ) ) ;
#243 = DIRECTION ( 'NONE',  ( 1.000000000000000000, 0.000000000000000000, 0.000000000000000000 ) ) ;
#244 = ORIENTED_EDGE ( 'NONE', *, *, #4, .F. ) ;
#245 = ORIENTED_EDGE ( 'NONE', *, *, #155, .T. ) ;
#246 = CARTESIAN_POINT ( 'NONE',  ( 0.000000000000000000, 0.000000000000000000, 402.0000000000000000 ) ) ;
#247 = CARTESIAN_POINT ( 'NONE',  ( 0.000000000000000000, 0.000000000000000000, 2.000000000000000000 ) ) ;
#248 = CYLINDRICAL_SURFACE ( 'NONE', #228, 1.250000000000000000 ) ;
#249 = CARTESIAN_POINT ( 'NONE',  ( -1.250000000000000000, 0.000000000000000000, 402.0000000000000000 ) ) ;
#250 = CARTESIAN_POINT ( 'NONE',  ( 0.000000000000000000, 0.000000000000000000, 2.000000000000000000 ) ) ;
#251 = SECURITY_CLASSIFICATION_LEVEL ( 'unclassified' ) ;
#252 = ADVANCED_FACE ( 'NONE', ( #94 ), #248, .T. ) ;
#253 = DIRECTION ( 'NONE',  ( -0.000000000000000000, -0.000000000000000000, -1.000000000000000000 ) ) ;
#254 = PERSON_AND_ORGANIZATION ( #240, #21 ) ;
#255 = COORDINATED_UNIVERSAL_TIME_OFFSET ( 1, 0, .AHEAD. ) ;
ENDSEC;
END-ISO-10303-21;
