ISO-10303-21;
HEADER;
FILE_DESCRIPTION (( 'STEP AP203' ),
    '1' );
FILE_NAME ('774b.STEP',
    '2023-02-13T13:50:45',
    ( '' ),
    ( '' ),
    'SwSTEP 2.0',
    'SolidWorks 2019',
    '' );
FILE_SCHEMA (( 'CONFIG_CONTROL_DESIGN' ));
ENDSEC;

DATA;
#1 = DIRECTION ( 'NONE',  ( -1.000000000000000000, 0.000000000000000000, 0.000000000000000000 ) ) ;
#2 = AXIS2_PLACEMENT_3D ( 'NONE', #207, #239, #63 ) ;
#3 = LINE ( 'NONE', #173, #222 ) ;
#4 = CALENDAR_DATE ( 2023, 13, 2 ) ;
#5 = CLOSED_SHELL ( 'NONE', ( #209, #8, #175, #108, #182, #85, #123 ) ) ;
#6 = DIRECTION ( 'NONE',  ( 0.000000000000000000, 0.000000000000000000, 1.000000000000000000 ) ) ;
#7 = ORIENTED_EDGE ( 'NONE', *, *, #114, .F. ) ;
#8 = ADVANCED_FACE ( 'NONE', ( #196 ), #203, .T. ) ;
#9 = CARTESIAN_POINT ( 'NONE',  ( 0.000000000000000000, 0.000000000000000000, 0.000000000000000000 ) ) ;
#10 = DIRECTION ( 'NONE',  ( 0.000000000000000000, 0.000000000000000000, 1.000000000000000000 ) ) ;
#11 = EDGE_LOOP ( 'NONE', ( #152, #71 ) ) ;
#12 = CC_DESIGN_PERSON_AND_ORGANIZATION_ASSIGNMENT ( #38, #156, ( #120 ) ) ;
#13 = APPROVAL_STATUS ( 'not_yet_approved' ) ;
#14 = PERSON_AND_ORGANIZATION_ROLE ( 'design_owner' ) ;
#15 = CIRCLE ( 'NONE', #171, 7.000000000000000000 ) ;
#16 = PERSON_AND_ORGANIZATION ( #160, #96 ) ;
#17 = AXIS2_PLACEMENT_3D ( 'NONE', #184, #61, #60 ) ;
#18 = APPROVAL_DATE_TIME ( #172, #69 ) ;
#19 = DIRECTION ( 'NONE',  ( 1.000000000000000000, 0.000000000000000000, 0.000000000000000000 ) ) ;
#20 = DIRECTION ( 'NONE',  ( 0.000000000000000000, 0.000000000000000000, 1.000000000000000000 ) ) ;
#21 = CARTESIAN_POINT ( 'NONE',  ( 0.000000000000000000, 0.000000000000000000, 5.000000000000000000 ) ) ;
#22 = MANIFOLD_SOLID_BREP ( 'Pøidat vysunutím3', #5 ) ;
#23 = APPLICATION_CONTEXT ( 'configuration controlled 3d designs of mechanical parts and assemblies' ) ;
#24 = AXIS2_PLACEMENT_3D ( 'NONE', #168, #208, #244 ) ;
#25 = CARTESIAN_POINT ( 'NONE',  ( 7.000000000000000000, 8.572527594031473190E-16, 5.000000000000000000 ) ) ;
#26 = VECTOR ( 'NONE', #83, 1000.000000000000000 ) ;
#27 = CARTESIAN_POINT ( 'NONE',  ( 4.500000000000000000, 5.510910596163088569E-16, 500.0000000000000000 ) ) ;
#28 = LOCAL_TIME ( 14, 50, 45.00000000000000000, #164 ) ;
#29 = LOCAL_TIME ( 14, 50, 45.00000000000000000, #46 ) ;
#30 = ORIENTED_EDGE ( 'NONE', *, *, #133, .T. ) ;
#31 = EDGE_CURVE ( 'NONE', #252, #245, #217, .T. ) ;
#32 = ORIENTED_EDGE ( 'NONE', *, *, #186, .F. ) ;
#33 = AXIS2_PLACEMENT_3D ( 'NONE', #159, #76, #235 ) ;
#34 = SECURITY_CLASSIFICATION_LEVEL ( 'unclassified' ) ;
#35 = CARTESIAN_POINT ( 'NONE',  ( 0.000000000000000000, 0.000000000000000000, 0.000000000000000000 ) ) ;
#36 = VERTEX_POINT ( 'NONE', #115 ) ;
#37 = EDGE_CURVE ( 'NONE', #180, #53, #153, .T. ) ;
#38 = PERSON_AND_ORGANIZATION ( #160, #96 ) ;
#39 = DIRECTION ( 'NONE',  ( -0.000000000000000000, -0.000000000000000000, -1.000000000000000000 ) ) ;
#40 = CC_DESIGN_APPROVAL ( #117, ( #253 ) ) ;
#41 = MECHANICAL_CONTEXT ( 'NONE', #23, 'mechanical' ) ;
#42 = APPROVAL_STATUS ( 'not_yet_approved' ) ;
#43 = EDGE_CURVE ( 'NONE', #36, #245, #241, .T. ) ;
#44 = CIRCLE ( 'NONE', #197, 4.500000000000000000 ) ;
#45 = DIRECTION ( 'NONE',  ( 0.000000000000000000, 0.000000000000000000, 1.000000000000000000 ) ) ;
#46 = COORDINATED_UNIVERSAL_TIME_OFFSET ( 1, 0, .AHEAD. ) ;
#47 = FACE_OUTER_BOUND ( 'NONE', #143, .T. ) ;
#48 = CIRCLE ( 'NONE', #220, 4.500000000000000000 ) ;
#49 = CYLINDRICAL_SURFACE ( 'NONE', #128, 4.500000000000000000 ) ;
#50 = DIRECTION ( 'NONE',  ( 1.000000000000000000, 0.000000000000000000, 0.000000000000000000 ) ) ;
#51 = ADVANCED_BREP_SHAPE_REPRESENTATION ( '774b', ( #22, #78 ), #162 ) ;
#52 = LOCAL_TIME ( 14, 50, 45.00000000000000000, #236 ) ;
#53 = VERTEX_POINT ( 'NONE', #106 ) ;
#54 = CARTESIAN_POINT ( 'NONE',  ( 0.000000000000000000, 0.000000000000000000, 0.000000000000000000 ) ) ;
#55 = ORIENTED_EDGE ( 'NONE', *, *, #227, .F. ) ;
#56 =( LENGTH_UNIT ( ) NAMED_UNIT ( * ) SI_UNIT ( .MILLI., .METRE. ) );
#57 = CIRCLE ( 'NONE', #145, 7.000000000000000000 ) ;
#58 = PERSON_AND_ORGANIZATION_ROLE ( 'creator' ) ;
#59 = APPROVAL ( #237, 'NEURÈENÝ' ) ;
#60 = DIRECTION ( 'NONE',  ( 1.000000000000000000, 0.000000000000000000, 0.000000000000000000 ) ) ;
#61 = DIRECTION ( 'NONE',  ( 0.000000000000000000, 0.000000000000000000, 1.000000000000000000 ) ) ;
#62 = ORIENTED_EDGE ( 'NONE', *, *, #79, .F. ) ;
#63 = DIRECTION ( 'NONE',  ( -1.000000000000000000, 0.000000000000000000, 0.000000000000000000 ) ) ;
#64 = LINE ( 'NONE', #25, #181 ) ;
#65 = FACE_BOUND ( 'NONE', #126, .T. ) ;
#66 = AXIS2_PLACEMENT_3D ( 'NONE', #21, #88, #1 ) ;
#67 = CARTESIAN_POINT ( 'NONE',  ( 7.000000000000000000, 8.572527594031473190E-16, 5.000000000000000000 ) ) ;
#68 = ORIENTED_EDGE ( 'NONE', *, *, #133, .F. ) ;
#69 = APPROVAL ( #42, 'NEURÈENÝ' ) ;
#70 = DIRECTION ( 'NONE',  ( 0.000000000000000000, 0.000000000000000000, 1.000000000000000000 ) ) ;
#71 = ORIENTED_EDGE ( 'NONE', *, *, #37, .T. ) ;
#72 = VERTEX_POINT ( 'NONE', #125 ) ;
#73 = COORDINATED_UNIVERSAL_TIME_OFFSET ( 1, 0, .AHEAD. ) ;
#74 = EDGE_LOOP ( 'NONE', ( #155, #177 ) ) ;
#75 = CIRCLE ( 'NONE', #17, 4.500000000000000000 ) ;
#76 = DIRECTION ( 'NONE',  ( -0.000000000000000000, -0.000000000000000000, -1.000000000000000000 ) ) ;
#77 = PERSON_AND_ORGANIZATION ( #160, #96 ) ;
#78 = AXIS2_PLACEMENT_3D ( 'NONE', #35, #214, #204 ) ;
#79 = EDGE_CURVE ( 'NONE', #53, #72, #3, .T. ) ;
#80 = AXIS2_PLACEMENT_3D ( 'NONE', #122, #170, #191 ) ;
#81 = CC_DESIGN_DATE_AND_TIME_ASSIGNMENT ( #188, #255, ( #120 ) ) ;
#82 = ORIENTED_EDGE ( 'NONE', *, *, #227, .T. ) ;
#83 = DIRECTION ( 'NONE',  ( -0.000000000000000000, -0.000000000000000000, -1.000000000000000000 ) ) ;
#84 = CYLINDRICAL_SURFACE ( 'NONE', #66, 7.000000000000000000 ) ;
#85 = ADVANCED_FACE ( 'NONE', ( #103 ), #49, .T. ) ;
#86 = CC_DESIGN_PERSON_AND_ORGANIZATION_ASSIGNMENT ( #163, #58, ( #253 ) ) ;
#87 = PLANE ( 'NONE',  #104 ) ;
#88 = DIRECTION ( 'NONE',  ( -0.000000000000000000, -0.000000000000000000, -1.000000000000000000 ) ) ;
#89 = ORIENTED_EDGE ( 'NONE', *, *, #114, .T. ) ;
#90 = CC_DESIGN_PERSON_AND_ORGANIZATION_ASSIGNMENT ( #135, #216, ( #253 ) ) ;
#91 = CARTESIAN_POINT ( 'NONE',  ( 0.000000000000000000, 0.000000000000000000, 5.000000000000000000 ) ) ;
#92 = DATE_AND_TIME ( #129, #225 ) ;
#93 = ORIENTED_EDGE ( 'NONE', *, *, #127, .T. ) ;
#94 = CC_DESIGN_DATE_AND_TIME_ASSIGNMENT ( #206, #238, ( #101 ) ) ;
#95 = ORIENTED_EDGE ( 'NONE', *, *, #43, .F. ) ;
#96 = ORGANIZATION ( 'NEURÈENÝ', 'NEURÈENÝ', '' ) ;
#97 = APPROVAL_ROLE ( '' ) ;
#98 = UNCERTAINTY_MEASURE_WITH_UNIT (LENGTH_MEASURE( 1.000000000000000082E-05 ), #56, 'distance_accuracy_value', 'NONE');
#99 = SHAPE_DEFINITION_REPRESENTATION ( #178, #51 ) ;
#100 = PLANE ( 'NONE',  #166 ) ;
#101 = SECURITY_CLASSIFICATION ( '', '', #34 ) ;
#102 = DIRECTION ( 'NONE',  ( 0.000000000000000000, 0.000000000000000000, 1.000000000000000000 ) ) ;
#103 = FACE_OUTER_BOUND ( 'NONE', #231, .T. ) ;
#104 = AXIS2_PLACEMENT_3D ( 'NONE', #121, #224, #124 ) ;
#105 = PRODUCT ( '774b', '774b', '', ( #41 ) ) ;
#106 = CARTESIAN_POINT ( 'NONE',  ( -7.000000000000000000, 0.000000000000000000, 5.000000000000000000 ) ) ;
#107 = DIRECTION ( 'NONE',  ( 1.000000000000000000, 0.000000000000000000, 0.000000000000000000 ) ) ;
#108 = ADVANCED_FACE ( 'NONE', ( #65, #146 ), #100, .T. ) ;
#109 = ORIENTED_EDGE ( 'NONE', *, *, #37, .F. ) ;
#110 = ORIENTED_EDGE ( 'NONE', *, *, #43, .T. ) ;
#111 = CARTESIAN_POINT ( 'NONE',  ( -4.500000000000000000, 0.000000000000000000, 500.0000000000000000 ) ) ;
#112 = APPLICATION_PROTOCOL_DEFINITION ( 'international standard', 'config_control_design', 1994, #251 ) ;
#113 = EDGE_LOOP ( 'NONE', ( #7, #201 ) ) ;
#114 = EDGE_CURVE ( 'NONE', #72, #213, #15, .T. ) ;
#115 = CARTESIAN_POINT ( 'NONE',  ( 4.500000000000000000, 5.510910596163088569E-16, 5.000000000000000000 ) ) ;
#116 = AXIS2_PLACEMENT_3D ( 'NONE', #9, #6, #151 ) ;
#117 = APPROVAL ( #13, 'NEURÈENÝ' ) ;
#118 = DIRECTION ( 'NONE',  ( 1.000000000000000000, 0.000000000000000000, 0.000000000000000000 ) ) ;
#119 = PERSON_AND_ORGANIZATION ( #160, #96 ) ;
#120 = PRODUCT_DEFINITION ( 'NEZNÁMÝ', '', #253, #165 ) ;
#121 = CARTESIAN_POINT ( 'NONE',  ( 0.000000000000000000, 0.000000000000000000, 500.0000000000000000 ) ) ;
#122 = CARTESIAN_POINT ( 'NONE',  ( 0.000000000000000000, 0.000000000000000000, 5.000000000000000000 ) ) ;
#123 = ADVANCED_FACE ( 'NONE', ( #194 ), #87, .T. ) ;
#124 = DIRECTION ( 'NONE',  ( 1.000000000000000000, 0.000000000000000000, -0.000000000000000000 ) ) ;
#125 = CARTESIAN_POINT ( 'NONE',  ( -7.000000000000000000, 0.000000000000000000, 0.000000000000000000 ) ) ;
#126 = EDGE_LOOP ( 'NONE', ( #55, #95 ) ) ;
#127 = EDGE_CURVE ( 'NONE', #213, #72, #249, .T. ) ;
#128 = AXIS2_PLACEMENT_3D ( 'NONE', #240, #174, #210 ) ;
#129 = CALENDAR_DATE ( 2023, 13, 2 ) ;
#130 = LOCAL_TIME ( 14, 50, 45.00000000000000000, #232 ) ;
#131 = DATE_AND_TIME ( #137, #52 ) ;
#132 = ORIENTED_EDGE ( 'NONE', *, *, #79, .T. ) ;
#133 = EDGE_CURVE ( 'NONE', #180, #213, #64, .T. ) ;
#134 = EDGE_CURVE ( 'NONE', #136, #36, #144, .T. ) ;
#135 = PERSON_AND_ORGANIZATION ( #160, #96 ) ;
#136 = VERTEX_POINT ( 'NONE', #211 ) ;
#137 = CALENDAR_DATE ( 2023, 13, 2 ) ;
#138 = APPROVAL_PERSON_ORGANIZATION ( #16, #69, #189 ) ;
#139 = APPROVAL_PERSON_ORGANIZATION ( #234, #117, #97 ) ;
#140 = CARTESIAN_POINT ( 'NONE',  ( 7.000000000000000000, 8.572527594031473190E-16, 0.000000000000000000 ) ) ;
#141 = VECTOR ( 'NONE', #39, 1000.000000000000000 ) ;
#142 = PERSON_AND_ORGANIZATION_ROLE ( 'classification_officer' ) ;
#143 = EDGE_LOOP ( 'NONE', ( #68, #32, #132, #89 ) ) ;
#144 = LINE ( 'NONE', #27, #26 ) ;
#145 = AXIS2_PLACEMENT_3D ( 'NONE', #226, #228, #50 ) ;
#146 = FACE_OUTER_BOUND ( 'NONE', #11, .T. ) ;
#147 = FACE_OUTER_BOUND ( 'NONE', #113, .T. ) ;
#148 = PRODUCT_RELATED_PRODUCT_CATEGORY ( 'detail', '', ( #105 ) ) ;
#149 = ORIENTED_EDGE ( 'NONE', *, *, #134, .F. ) ;
#150 = ORIENTED_EDGE ( 'NONE', *, *, #218, .F. ) ;
#151 = DIRECTION ( 'NONE',  ( 1.000000000000000000, 0.000000000000000000, -0.000000000000000000 ) ) ;
#152 = ORIENTED_EDGE ( 'NONE', *, *, #186, .T. ) ;
#153 = CIRCLE ( 'NONE', #187, 7.000000000000000000 ) ;
#154 = PERSON_AND_ORGANIZATION ( #160, #96 ) ;
#155 = ORIENTED_EDGE ( 'NONE', *, *, #250, .T. ) ;
#156 = PERSON_AND_ORGANIZATION_ROLE ( 'creator' ) ;
#157 = EDGE_LOOP ( 'NONE', ( #109, #30, #93, #62 ) ) ;
#158 = APPROVAL_DATE_TIME ( #92, #59 ) ;
#159 = CARTESIAN_POINT ( 'NONE',  ( 0.000000000000000000, 0.000000000000000000, 5.000000000000000000 ) ) ;
#160 = PERSON ( 'NEURÈENÝ', 'NEURÈENÝ', 'NEURÈENÝ', ('NEURÈENÝ'), ('NEURÈENÝ'), ('NEURÈENÝ') ) ;
#161 = APPROVAL_ROLE ( '' ) ;
#162 =( GEOMETRIC_REPRESENTATION_CONTEXT ( 3 ) GLOBAL_UNCERTAINTY_ASSIGNED_CONTEXT ( ( #98 ) ) GLOBAL_UNIT_ASSIGNED_CONTEXT ( ( #56, #205, #219 ) ) REPRESENTATION_CONTEXT ( 'NONE', 'WORKASPACE' ) );
#163 = PERSON_AND_ORGANIZATION ( #160, #96 ) ;
#164 = COORDINATED_UNIVERSAL_TIME_OFFSET ( 1, 0, .AHEAD. ) ;
#165 = DESIGN_CONTEXT ( 'detailed design', #251, 'design' ) ;
#166 = AXIS2_PLACEMENT_3D ( 'NONE', #179, #20, #247 ) ;
#167 = APPROVAL_PERSON_ORGANIZATION ( #154, #59, #161 ) ;
#168 = CARTESIAN_POINT ( 'NONE',  ( 0.000000000000000000, 0.000000000000000000, 0.000000000000000000 ) ) ;
#169 = CC_DESIGN_PERSON_AND_ORGANIZATION_ASSIGNMENT ( #77, #14, ( #105 ) ) ;
#170 = DIRECTION ( 'NONE',  ( 0.000000000000000000, 0.000000000000000000, 1.000000000000000000 ) ) ;
#171 = AXIS2_PLACEMENT_3D ( 'NONE', #54, #102, #19 ) ;
#172 = DATE_AND_TIME ( #4, #28 ) ;
#173 = CARTESIAN_POINT ( 'NONE',  ( -7.000000000000000000, 0.000000000000000000, 5.000000000000000000 ) ) ;
#174 = DIRECTION ( 'NONE',  ( -0.000000000000000000, -0.000000000000000000, -1.000000000000000000 ) ) ;
#175 = ADVANCED_FACE ( 'NONE', ( #47 ), #84, .T. ) ;
#176 = ORIENTED_EDGE ( 'NONE', *, *, #134, .T. ) ;
#177 = ORIENTED_EDGE ( 'NONE', *, *, #218, .T. ) ;
#178 = PRODUCT_DEFINITION_SHAPE ( 'NONE', 'NONE',  #120 ) ;
#179 = CARTESIAN_POINT ( 'NONE',  ( 0.000000000000000000, 0.000000000000000000, 5.000000000000000000 ) ) ;
#180 = VERTEX_POINT ( 'NONE', #67 ) ;
#181 = VECTOR ( 'NONE', #190, 1000.000000000000000 ) ;
#182 = ADVANCED_FACE ( 'NONE', ( #147 ), #193, .F. ) ;
#183 = CC_DESIGN_SECURITY_CLASSIFICATION ( #101, ( #253 ) ) ;
#184 = CARTESIAN_POINT ( 'NONE',  ( 0.000000000000000000, 0.000000000000000000, 5.000000000000000000 ) ) ;
#185 = CARTESIAN_POINT ( 'NONE',  ( -4.500000000000000000, 0.000000000000000000, 500.0000000000000000 ) ) ;
#186 = EDGE_CURVE ( 'NONE', #53, #180, #57, .T. ) ;
#187 = AXIS2_PLACEMENT_3D ( 'NONE', #91, #70, #107 ) ;
#188 = DATE_AND_TIME ( #230, #130 ) ;
#189 = APPROVAL_ROLE ( '' ) ;
#190 = DIRECTION ( 'NONE',  ( -0.000000000000000000, -0.000000000000000000, -1.000000000000000000 ) ) ;
#191 = DIRECTION ( 'NONE',  ( 1.000000000000000000, 0.000000000000000000, 0.000000000000000000 ) ) ;
#192 = CALENDAR_DATE ( 2023, 13, 2 ) ;
#193 = PLANE ( 'NONE',  #116 ) ;
#194 = FACE_OUTER_BOUND ( 'NONE', #74, .T. ) ;
#195 = FACE_OUTER_BOUND ( 'NONE', #233, .T. ) ;
#196 = FACE_OUTER_BOUND ( 'NONE', #157, .T. ) ;
#197 = AXIS2_PLACEMENT_3D ( 'NONE', #223, #45, #198 ) ;
#198 = DIRECTION ( 'NONE',  ( 1.000000000000000000, 0.000000000000000000, 0.000000000000000000 ) ) ;
#199 = ORIENTED_EDGE ( 'NONE', *, *, #31, .T. ) ;
#200 = CARTESIAN_POINT ( 'NONE',  ( 0.000000000000000000, 0.000000000000000000, 500.0000000000000000 ) ) ;
#201 = ORIENTED_EDGE ( 'NONE', *, *, #127, .F. ) ;
#202 = APPLICATION_PROTOCOL_DEFINITION ( 'international standard', 'config_control_design', 1994, #23 ) ;
#203 = CYLINDRICAL_SURFACE ( 'NONE', #33, 7.000000000000000000 ) ;
#204 = DIRECTION ( 'NONE',  ( 1.000000000000000000, 0.000000000000000000, 0.000000000000000000 ) ) ;
#205 =( NAMED_UNIT ( * ) PLANE_ANGLE_UNIT ( ) SI_UNIT ( $, .RADIAN. ) );
#206 = DATE_AND_TIME ( #192, #29 ) ;
#207 = CARTESIAN_POINT ( 'NONE',  ( 0.000000000000000000, 0.000000000000000000, 500.0000000000000000 ) ) ;
#208 = DIRECTION ( 'NONE',  ( 0.000000000000000000, 0.000000000000000000, 1.000000000000000000 ) ) ;
#209 = ADVANCED_FACE ( 'NONE', ( #195 ), #212, .T. ) ;
#210 = DIRECTION ( 'NONE',  ( -1.000000000000000000, 0.000000000000000000, 0.000000000000000000 ) ) ;
#211 = CARTESIAN_POINT ( 'NONE',  ( 4.500000000000000000, 5.510910596163088569E-16, 500.0000000000000000 ) ) ;
#212 = CYLINDRICAL_SURFACE ( 'NONE', #2, 4.500000000000000000 ) ;
#213 = VERTEX_POINT ( 'NONE', #140 ) ;
#214 = DIRECTION ( 'NONE',  ( 0.000000000000000000, 0.000000000000000000, 1.000000000000000000 ) ) ;
#215 = ORIENTED_EDGE ( 'NONE', *, *, #250, .F. ) ;
#216 = PERSON_AND_ORGANIZATION_ROLE ( 'design_supplier' ) ;
#217 = LINE ( 'NONE', #185, #141 ) ;
#218 = EDGE_CURVE ( 'NONE', #136, #252, #44, .T. ) ;
#219 =( NAMED_UNIT ( * ) SI_UNIT ( $, .STERADIAN. ) SOLID_ANGLE_UNIT ( ) );
#220 = AXIS2_PLACEMENT_3D ( 'NONE', #200, #10, #118 ) ;
#221 = APPROVAL_DATE_TIME ( #131, #117 ) ;
#222 = VECTOR ( 'NONE', #242, 1000.000000000000000 ) ;
#223 = CARTESIAN_POINT ( 'NONE',  ( 0.000000000000000000, 0.000000000000000000, 500.0000000000000000 ) ) ;
#224 = DIRECTION ( 'NONE',  ( 0.000000000000000000, 0.000000000000000000, 1.000000000000000000 ) ) ;
#225 = LOCAL_TIME ( 14, 50, 45.00000000000000000, #73 ) ;
#226 = CARTESIAN_POINT ( 'NONE',  ( 0.000000000000000000, 0.000000000000000000, 5.000000000000000000 ) ) ;
#227 = EDGE_CURVE ( 'NONE', #245, #36, #75, .T. ) ;
#228 = DIRECTION ( 'NONE',  ( 0.000000000000000000, 0.000000000000000000, 1.000000000000000000 ) ) ;
#229 = ORIENTED_EDGE ( 'NONE', *, *, #31, .F. ) ;
#230 = CALENDAR_DATE ( 2023, 13, 2 ) ;
#231 = EDGE_LOOP ( 'NONE', ( #149, #215, #199, #82 ) ) ;
#232 = COORDINATED_UNIVERSAL_TIME_OFFSET ( 1, 0, .AHEAD. ) ;
#233 = EDGE_LOOP ( 'NONE', ( #150, #176, #110, #229 ) ) ;
#234 = PERSON_AND_ORGANIZATION ( #160, #96 ) ;
#235 = DIRECTION ( 'NONE',  ( -1.000000000000000000, 0.000000000000000000, 0.000000000000000000 ) ) ;
#236 = COORDINATED_UNIVERSAL_TIME_OFFSET ( 1, 0, .AHEAD. ) ;
#237 = APPROVAL_STATUS ( 'not_yet_approved' ) ;
#238 = DATE_TIME_ROLE ( 'classification_date' ) ;
#239 = DIRECTION ( 'NONE',  ( -0.000000000000000000, -0.000000000000000000, -1.000000000000000000 ) ) ;
#240 = CARTESIAN_POINT ( 'NONE',  ( 0.000000000000000000, 0.000000000000000000, 500.0000000000000000 ) ) ;
#241 = CIRCLE ( 'NONE', #80, 4.500000000000000000 ) ;
#242 = DIRECTION ( 'NONE',  ( -0.000000000000000000, -0.000000000000000000, -1.000000000000000000 ) ) ;
#243 = CC_DESIGN_APPROVAL ( #59, ( #120 ) ) ;
#244 = DIRECTION ( 'NONE',  ( 1.000000000000000000, 0.000000000000000000, 0.000000000000000000 ) ) ;
#245 = VERTEX_POINT ( 'NONE', #254 ) ;
#246 = CC_DESIGN_APPROVAL ( #69, ( #101 ) ) ;
#247 = DIRECTION ( 'NONE',  ( 1.000000000000000000, 0.000000000000000000, -0.000000000000000000 ) ) ;
#248 = CC_DESIGN_PERSON_AND_ORGANIZATION_ASSIGNMENT ( #119, #142, ( #101 ) ) ;
#249 = CIRCLE ( 'NONE', #24, 7.000000000000000000 ) ;
#250 = EDGE_CURVE ( 'NONE', #252, #136, #48, .T. ) ;
#251 = APPLICATION_CONTEXT ( 'configuration controlled 3d designs of mechanical parts and assemblies' ) ;
#252 = VERTEX_POINT ( 'NONE', #111 ) ;
#253 = PRODUCT_DEFINITION_FORMATION_WITH_SPECIFIED_SOURCE ( 'LIBOVOLNÝ', '', #105, .NOT_KNOWN. ) ;
#254 = CARTESIAN_POINT ( 'NONE',  ( -4.500000000000000000, 0.000000000000000000, 5.000000000000000000 ) ) ;
#255 = DATE_TIME_ROLE ( 'creation_date' ) ;
ENDSEC;
END-ISO-10303-21;
