ISO-10303-21;
HEADER;
FILE_DESCRIPTION (( 'STEP AP203' ),
    '1' );
FILE_NAME ('fe11.STEP',
    '2022-07-07T17:13:40',
    ( '' ),
    ( '' ),
    'SwSTEP 2.0',
    'SolidWorks 2019',
    '' );
FILE_SCHEMA (( 'CONFIG_CONTROL_DESIGN' ));
ENDSEC;

DATA;
#1 = DATE_TIME_ROLE ( 'creation_date' ) ;
#2 = VERTEX_POINT ( 'NONE', #5 ) ;
#3 = ORIENTED_EDGE ( 'NONE', *, *, #222, .F. ) ;
#4 = CC_DESIGN_SECURITY_CLASSIFICATION ( #240, ( #23 ) ) ;
#5 = CARTESIAN_POINT ( 'NONE',  ( 7.000000000000000000, 8.572527594031473190E-16, 207.0000000000000284 ) ) ;
#6 = ORIENTED_EDGE ( 'NONE', *, *, #101, .F. ) ;
#7 = CC_DESIGN_PERSON_AND_ORGANIZATION_ASSIGNMENT ( #237, #134, ( #87 ) ) ;
#8 = APPROVAL_ROLE ( '' ) ;
#9 = AXIS2_PLACEMENT_3D ( 'NONE', #129, #31, #255 ) ;
#10 = APPROVAL_DATE_TIME ( #231, #239 ) ;
#11 = FACE_OUTER_BOUND ( 'NONE', #176, .T. ) ;
#12 = DIRECTION ( 'NONE',  ( 0.000000000000000000, 0.000000000000000000, 1.000000000000000000 ) ) ;
#13 = DIRECTION ( 'NONE',  ( 1.000000000000000000, 0.000000000000000000, 0.000000000000000000 ) ) ;
#14 = COORDINATED_UNIVERSAL_TIME_OFFSET ( 1, 0, .AHEAD. ) ;
#15 = DIRECTION ( 'NONE',  ( 0.000000000000000000, 0.000000000000000000, 1.000000000000000000 ) ) ;
#16 = DIRECTION ( 'NONE',  ( 1.000000000000000000, 0.000000000000000000, 0.000000000000000000 ) ) ;
#17 = AXIS2_PLACEMENT_3D ( 'NONE', #147, #71, #170 ) ;
#18 = CIRCLE ( 'NONE', #133, 7.000000000000000000 ) ;
#19 = CC_DESIGN_PERSON_AND_ORGANIZATION_ASSIGNMENT ( #88, #165, ( #228 ) ) ;
#20 = CARTESIAN_POINT ( 'NONE',  ( 0.000000000000000000, 0.000000000000000000, 7.000000000000000000 ) ) ;
#21 = EDGE_LOOP ( 'NONE', ( #75, #113 ) ) ;
#22 = ORIENTED_EDGE ( 'NONE', *, *, #64, .T. ) ;
#23 = PRODUCT_DEFINITION_FORMATION_WITH_SPECIFIED_SOURCE ( 'LIBOVOLNÝ', '', #87, .NOT_KNOWN. ) ;
#24 = CIRCLE ( 'NONE', #50, 11.00000000000000000 ) ;
#25 = DIRECTION ( 'NONE',  ( -1.000000000000000000, 0.000000000000000000, 0.000000000000000000 ) ) ;
#26 = CARTESIAN_POINT ( 'NONE',  ( 0.000000000000000000, 0.000000000000000000, 207.0000000000000284 ) ) ;
#27 = CARTESIAN_POINT ( 'NONE',  ( 0.000000000000000000, 0.000000000000000000, 0.000000000000000000 ) ) ;
#28 = DIRECTION ( 'NONE',  ( -0.000000000000000000, -0.000000000000000000, -1.000000000000000000 ) ) ;
#29 = CARTESIAN_POINT ( 'NONE',  ( 0.000000000000000000, 0.000000000000000000, 0.000000000000000000 ) ) ;
#30 = CC_DESIGN_APPROVAL ( #239, ( #240 ) ) ;
#31 = DIRECTION ( 'NONE',  ( 0.000000000000000000, 0.000000000000000000, 1.000000000000000000 ) ) ;
#32 = APPROVAL_STATUS ( 'not_yet_approved' ) ;
#33 = FACE_BOUND ( 'NONE', #21, .T. ) ;
#34 = PLANE ( 'NONE',  #191 ) ;
#35 = DIRECTION ( 'NONE',  ( 0.000000000000000000, 0.000000000000000000, 1.000000000000000000 ) ) ;
#36 = EDGE_LOOP ( 'NONE', ( #242, #202 ) ) ;
#37 = ORIENTED_EDGE ( 'NONE', *, *, #193, .T. ) ;
#38 = PRODUCT_DEFINITION_SHAPE ( 'NONE', 'NONE',  #228 ) ;
#39 = AXIS2_PLACEMENT_3D ( 'NONE', #27, #69, #47 ) ;
#40 = CC_DESIGN_PERSON_AND_ORGANIZATION_ASSIGNMENT ( #246, #160, ( #23 ) ) ;
#41 = PERSON_AND_ORGANIZATION ( #65, #111 ) ;
#42 = PERSON_AND_ORGANIZATION ( #65, #111 ) ;
#43 = DIRECTION ( 'NONE',  ( -0.000000000000000000, -0.000000000000000000, -1.000000000000000000 ) ) ;
#44 = CIRCLE ( 'NONE', #60, 11.00000000000000000 ) ;
#45 = FACE_OUTER_BOUND ( 'NONE', #119, .T. ) ;
#46 = DIRECTION ( 'NONE',  ( -0.000000000000000000, -0.000000000000000000, -1.000000000000000000 ) ) ;
#47 = DIRECTION ( 'NONE',  ( 1.000000000000000000, 0.000000000000000000, 0.000000000000000000 ) ) ;
#48 = LINE ( 'NONE', #215, #181 ) ;
#49 = CARTESIAN_POINT ( 'NONE',  ( 0.000000000000000000, 0.000000000000000000, 7.000000000000000000 ) ) ;
#50 = AXIS2_PLACEMENT_3D ( 'NONE', #185, #12, #13 ) ;
#51 = CARTESIAN_POINT ( 'NONE',  ( 11.00000000000000000, 1.347111479062088405E-15, 0.000000000000000000 ) ) ;
#52 = APPLICATION_CONTEXT ( 'configuration controlled 3d designs of mechanical parts and assemblies' ) ;
#53 = PERSON_AND_ORGANIZATION ( #65, #111 ) ;
#54 = APPROVAL ( #32, 'NEURÈENÝ' ) ;
#55 = ORIENTED_EDGE ( 'NONE', *, *, #245, .T. ) ;
#56 = AXIS2_PLACEMENT_3D ( 'NONE', #142, #209, #83 ) ;
#57 = CC_DESIGN_DATE_AND_TIME_ASSIGNMENT ( #161, #124, ( #240 ) ) ;
#58 = ORIENTED_EDGE ( 'NONE', *, *, #157, .F. ) ;
#59 = VERTEX_POINT ( 'NONE', #139 ) ;
#60 = AXIS2_PLACEMENT_3D ( 'NONE', #29, #15, #186 ) ;
#61 = ORIENTED_EDGE ( 'NONE', *, *, #214, .T. ) ;
#62 = CIRCLE ( 'NONE', #126, 7.000000000000000000 ) ;
#63 = PERSON_AND_ORGANIZATION_ROLE ( 'classification_officer' ) ;
#64 = EDGE_CURVE ( 'NONE', #59, #152, #62, .T. ) ;
#65 = PERSON ( 'NEURÈENÝ', 'NEURÈENÝ', 'NEURÈENÝ', ('NEURÈENÝ'), ('NEURÈENÝ'), ('NEURÈENÝ') ) ;
#66 = LINE ( 'NONE', #103, #204 ) ;
#67 = AXIS2_PLACEMENT_3D ( 'NONE', #164, #252, #70 ) ;
#68 = CYLINDRICAL_SURFACE ( 'NONE', #81, 7.000000000000000000 ) ;
#69 = DIRECTION ( 'NONE',  ( 0.000000000000000000, 0.000000000000000000, 1.000000000000000000 ) ) ;
#70 = DIRECTION ( 'NONE',  ( 1.000000000000000000, 0.000000000000000000, 0.000000000000000000 ) ) ;
#71 = DIRECTION ( 'NONE',  ( 0.000000000000000000, 0.000000000000000000, 1.000000000000000000 ) ) ;
#72 = DIRECTION ( 'NONE',  ( 0.000000000000000000, 0.000000000000000000, 1.000000000000000000 ) ) ;
#73 = DIRECTION ( 'NONE',  ( 0.000000000000000000, 0.000000000000000000, 1.000000000000000000 ) ) ;
#74 = ADVANCED_FACE ( 'NONE', ( #33, #135 ), #34, .T. ) ;
#75 = ORIENTED_EDGE ( 'NONE', *, *, #245, .F. ) ;
#76 = LOCAL_TIME ( 19, 13, 40.00000000000000000, #205 ) ;
#77 = CARTESIAN_POINT ( 'NONE',  ( 0.000000000000000000, 0.000000000000000000, 7.000000000000000000 ) ) ;
#78 = DIRECTION ( 'NONE',  ( 1.000000000000000000, 0.000000000000000000, -0.000000000000000000 ) ) ;
#79 = DIRECTION ( 'NONE',  ( 0.000000000000000000, 0.000000000000000000, 1.000000000000000000 ) ) ;
#80 = CIRCLE ( 'NONE', #17, 11.00000000000000000 ) ;
#81 = AXIS2_PLACEMENT_3D ( 'NONE', #90, #187, #184 ) ;
#82 = SECURITY_CLASSIFICATION_LEVEL ( 'unclassified' ) ;
#83 = DIRECTION ( 'NONE',  ( 1.000000000000000000, 0.000000000000000000, -0.000000000000000000 ) ) ;
#84 = ADVANCED_BREP_SHAPE_REPRESENTATION ( 'fe11', ( #128, #39 ), #158 ) ;
#85 = DIRECTION ( 'NONE',  ( -1.000000000000000000, 0.000000000000000000, 0.000000000000000000 ) ) ;
#86 = CC_DESIGN_APPROVAL ( #54, ( #23 ) ) ;
#87 = PRODUCT ( 'fe11', 'fe11', '', ( #188 ) ) ;
#88 = PERSON_AND_ORGANIZATION ( #65, #111 ) ;
#89 = CC_DESIGN_DATE_AND_TIME_ASSIGNMENT ( #171, #1, ( #228 ) ) ;
#90 = CARTESIAN_POINT ( 'NONE',  ( 0.000000000000000000, 0.000000000000000000, 207.0000000000000284 ) ) ;
#91 = CALENDAR_DATE ( 2022, 7, 7 ) ;
#92 = LINE ( 'NONE', #254, #210 ) ;
#93 = COORDINATED_UNIVERSAL_TIME_OFFSET ( 1, 0, .AHEAD. ) ;
#94 = CARTESIAN_POINT ( 'NONE',  ( -11.00000000000000000, 0.000000000000000000, 7.000000000000000000 ) ) ;
#95 = EDGE_CURVE ( 'NONE', #172, #227, #196, .T. ) ;
#96 = EDGE_LOOP ( 'NONE', ( #137, #61, #225, #141 ) ) ;
#97 = EDGE_LOOP ( 'NONE', ( #223, #37, #22, #6 ) ) ;
#98 = ORIENTED_EDGE ( 'NONE', *, *, #224, .F. ) ;
#99 = CC_DESIGN_APPROVAL ( #219, ( #228 ) ) ;
#100 = ADVANCED_FACE ( 'NONE', ( #45 ), #68, .T. ) ;
#101 = EDGE_CURVE ( 'NONE', #199, #152, #92, .T. ) ;
#102 = CYLINDRICAL_SURFACE ( 'NONE', #167, 7.000000000000000000 ) ;
#103 = CARTESIAN_POINT ( 'NONE',  ( 7.000000000000000000, 8.572527594031473190E-16, 207.0000000000000284 ) ) ;
#104 = APPLICATION_PROTOCOL_DEFINITION ( 'international standard', 'config_control_design', 1994, #52 ) ;
#105 = FACE_OUTER_BOUND ( 'NONE', #174, .T. ) ;
#106 =( NAMED_UNIT ( * ) SI_UNIT ( $, .STERADIAN. ) SOLID_ANGLE_UNIT ( ) );
#107 = CARTESIAN_POINT ( 'NONE',  ( 0.000000000000000000, 0.000000000000000000, 7.000000000000000000 ) ) ;
#108 = APPLICATION_PROTOCOL_DEFINITION ( 'international standard', 'config_control_design', 1994, #112 ) ;
#109 = DATE_AND_TIME ( #91, #145 ) ;
#110 = APPROVAL_ROLE ( '' ) ;
#111 = ORGANIZATION ( 'NEURÈENÝ', 'NEURÈENÝ', '' ) ;
#112 = APPLICATION_CONTEXT ( 'configuration controlled 3d designs of mechanical parts and assemblies' ) ;
#113 = ORIENTED_EDGE ( 'NONE', *, *, #64, .F. ) ;
#114 = AXIS2_PLACEMENT_3D ( 'NONE', #107, #169, #25 ) ;
#115 = DESIGN_CONTEXT ( 'detailed design', #112, 'design' ) ;
#116 = ORIENTED_EDGE ( 'NONE', *, *, #101, .T. ) ;
#117 = APPROVAL_PERSON_ORGANIZATION ( #42, #239, #8 ) ;
#118 = VERTEX_POINT ( 'NONE', #51 ) ;
#119 = EDGE_LOOP ( 'NONE', ( #226, #58, #116, #55 ) ) ;
#120 = COORDINATED_UNIVERSAL_TIME_OFFSET ( 1, 0, .AHEAD. ) ;
#121 = UNCERTAINTY_MEASURE_WITH_UNIT (LENGTH_MEASURE( 1.000000000000000082E-05 ), #131, 'distance_accuracy_value', 'NONE');
#122 = CALENDAR_DATE ( 2022, 7, 7 ) ;
#123 = DIRECTION ( 'NONE',  ( 0.000000000000000000, 0.000000000000000000, 1.000000000000000000 ) ) ;
#124 = DATE_TIME_ROLE ( 'classification_date' ) ;
#125 = CARTESIAN_POINT ( 'NONE',  ( -7.000000000000000000, 0.000000000000000000, 7.000000000000000000 ) ) ;
#126 = AXIS2_PLACEMENT_3D ( 'NONE', #77, #79, #154 ) ;
#127 = DIRECTION ( 'NONE',  ( -0.000000000000000000, -0.000000000000000000, -1.000000000000000000 ) ) ;
#128 = MANIFOLD_SOLID_BREP ( 'Pøidat vysunutím3', #221 ) ;
#129 = CARTESIAN_POINT ( 'NONE',  ( 0.000000000000000000, 0.000000000000000000, 207.0000000000000284 ) ) ;
#130 = CARTESIAN_POINT ( 'NONE',  ( 0.000000000000000000, 0.000000000000000000, 207.0000000000000284 ) ) ;
#131 =( LENGTH_UNIT ( ) NAMED_UNIT ( * ) SI_UNIT ( .MILLI., .METRE. ) );
#132 = PLANE ( 'NONE',  #138 ) ;
#133 = AXIS2_PLACEMENT_3D ( 'NONE', #232, #72, #149 ) ;
#134 = PERSON_AND_ORGANIZATION_ROLE ( 'design_owner' ) ;
#135 = FACE_OUTER_BOUND ( 'NONE', #36, .T. ) ;
#136 = CIRCLE ( 'NONE', #9, 7.000000000000000000 ) ;
#137 = ORIENTED_EDGE ( 'NONE', *, *, #197, .F. ) ;
#138 = AXIS2_PLACEMENT_3D ( 'NONE', #26, #123, #144 ) ;
#139 = CARTESIAN_POINT ( 'NONE',  ( 7.000000000000000000, 8.572527594031473190E-16, 7.000000000000000000 ) ) ;
#140 = VERTEX_POINT ( 'NONE', #162 ) ;
#141 = ORIENTED_EDGE ( 'NONE', *, *, #95, .F. ) ;
#142 = CARTESIAN_POINT ( 'NONE',  ( 0.000000000000000000, 0.000000000000000000, 0.000000000000000000 ) ) ;
#143 = CALENDAR_DATE ( 2022, 7, 7 ) ;
#144 = DIRECTION ( 'NONE',  ( 1.000000000000000000, 0.000000000000000000, -0.000000000000000000 ) ) ;
#145 = LOCAL_TIME ( 19, 13, 40.00000000000000000, #14 ) ;
#146 = CYLINDRICAL_SURFACE ( 'NONE', #114, 11.00000000000000000 ) ;
#147 = CARTESIAN_POINT ( 'NONE',  ( 0.000000000000000000, 0.000000000000000000, 7.000000000000000000 ) ) ;
#148 = DIRECTION ( 'NONE',  ( -1.000000000000000000, 0.000000000000000000, 0.000000000000000000 ) ) ;
#149 = DIRECTION ( 'NONE',  ( 1.000000000000000000, 0.000000000000000000, 0.000000000000000000 ) ) ;
#150 = ADVANCED_FACE ( 'NONE', ( #211 ), #146, .T. ) ;
#151 = LOCAL_TIME ( 19, 13, 40.00000000000000000, #120 ) ;
#152 = VERTEX_POINT ( 'NONE', #125 ) ;
#153 = LOCAL_TIME ( 19, 13, 40.00000000000000000, #253 ) ;
#154 = DIRECTION ( 'NONE',  ( 1.000000000000000000, 0.000000000000000000, 0.000000000000000000 ) ) ;
#155 = ORIENTED_EDGE ( 'NONE', *, *, #214, .F. ) ;
#156 = ORIENTED_EDGE ( 'NONE', *, *, #222, .T. ) ;
#157 = EDGE_CURVE ( 'NONE', #199, #2, #18, .T. ) ;
#158 =( GEOMETRIC_REPRESENTATION_CONTEXT ( 3 ) GLOBAL_UNCERTAINTY_ASSIGNED_CONTEXT ( ( #121 ) ) GLOBAL_UNIT_ASSIGNED_CONTEXT ( ( #131, #216, #106 ) ) REPRESENTATION_CONTEXT ( 'NONE', 'WORKASPACE' ) );
#159 = APPROVAL_DATE_TIME ( #179, #54 ) ;
#160 = PERSON_AND_ORGANIZATION_ROLE ( 'creator' ) ;
#161 = DATE_AND_TIME ( #122, #76 ) ;
#162 = CARTESIAN_POINT ( 'NONE',  ( 11.00000000000000000, 1.347111479062088405E-15, 7.000000000000000000 ) ) ;
#163 = ADVANCED_FACE ( 'NONE', ( #166 ), #233, .T. ) ;
#164 = CARTESIAN_POINT ( 'NONE',  ( 0.000000000000000000, 0.000000000000000000, 0.000000000000000000 ) ) ;
#165 = PERSON_AND_ORGANIZATION_ROLE ( 'creator' ) ;
#166 = FACE_OUTER_BOUND ( 'NONE', #96, .T. ) ;
#167 = AXIS2_PLACEMENT_3D ( 'NONE', #130, #43, #85 ) ;
#168 = CALENDAR_DATE ( 2022, 7, 7 ) ;
#169 = DIRECTION ( 'NONE',  ( -0.000000000000000000, -0.000000000000000000, -1.000000000000000000 ) ) ;
#170 = DIRECTION ( 'NONE',  ( 1.000000000000000000, 0.000000000000000000, 0.000000000000000000 ) ) ;
#171 = DATE_AND_TIME ( #168, #178 ) ;
#172 = VERTEX_POINT ( 'NONE', #236 ) ;
#173 = CC_DESIGN_PERSON_AND_ORGANIZATION_ASSIGNMENT ( #180, #248, ( #23 ) ) ;
#174 = EDGE_LOOP ( 'NONE', ( #3, #175 ) ) ;
#175 = ORIENTED_EDGE ( 'NONE', *, *, #201, .F. ) ;
#176 = EDGE_LOOP ( 'NONE', ( #243, #244 ) ) ;
#177 = ADVANCED_FACE ( 'NONE', ( #213 ), #102, .T. ) ;
#178 = LOCAL_TIME ( 19, 13, 40.00000000000000000, #93 ) ;
#179 = DATE_AND_TIME ( #212, #153 ) ;
#180 = PERSON_AND_ORGANIZATION ( #65, #111 ) ;
#181 = VECTOR ( 'NONE', #190, 1000.000000000000000 ) ;
#182 = ADVANCED_FACE ( 'NONE', ( #11 ), #132, .T. ) ;
#183 = CC_DESIGN_PERSON_AND_ORGANIZATION_ASSIGNMENT ( #41, #63, ( #240 ) ) ;
#184 = DIRECTION ( 'NONE',  ( -1.000000000000000000, 0.000000000000000000, 0.000000000000000000 ) ) ;
#185 = CARTESIAN_POINT ( 'NONE',  ( 0.000000000000000000, 0.000000000000000000, 7.000000000000000000 ) ) ;
#186 = DIRECTION ( 'NONE',  ( 1.000000000000000000, 0.000000000000000000, 0.000000000000000000 ) ) ;
#187 = DIRECTION ( 'NONE',  ( -0.000000000000000000, -0.000000000000000000, -1.000000000000000000 ) ) ;
#188 = MECHANICAL_CONTEXT ( 'NONE', #52, 'mechanical' ) ;
#189 = ADVANCED_FACE ( 'NONE', ( #105 ), #250, .F. ) ;
#190 = DIRECTION ( 'NONE',  ( -0.000000000000000000, -0.000000000000000000, -1.000000000000000000 ) ) ;
#191 = AXIS2_PLACEMENT_3D ( 'NONE', #20, #35, #78 ) ;
#192 = APPROVAL_STATUS ( 'not_yet_approved' ) ;
#193 = EDGE_CURVE ( 'NONE', #2, #59, #66, .T. ) ;
#194 = CARTESIAN_POINT ( 'NONE',  ( -11.00000000000000000, 0.000000000000000000, 0.000000000000000000 ) ) ;
#195 = APPROVAL_PERSON_ORGANIZATION ( #217, #219, #235 ) ;
#196 = LINE ( 'NONE', #94, #247 ) ;
#197 = EDGE_CURVE ( 'NONE', #140, #172, #24, .T. ) ;
#198 = ORIENTED_EDGE ( 'NONE', *, *, #95, .T. ) ;
#199 = VERTEX_POINT ( 'NONE', #234 ) ;
#200 = AXIS2_PLACEMENT_3D ( 'NONE', #49, #73, #16 ) ;
#201 = EDGE_CURVE ( 'NONE', #118, #227, #220, .T. ) ;
#202 = ORIENTED_EDGE ( 'NONE', *, *, #197, .T. ) ;
#203 = APPROVAL_PERSON_ORGANIZATION ( #53, #54, #110 ) ;
#204 = VECTOR ( 'NONE', #28, 1000.000000000000000 ) ;
#205 = COORDINATED_UNIVERSAL_TIME_OFFSET ( 1, 0, .AHEAD. ) ;
#206 = PRODUCT_RELATED_PRODUCT_CATEGORY ( 'detail', '', ( #87 ) ) ;
#207 = APPROVAL_STATUS ( 'not_yet_approved' ) ;
#208 = CIRCLE ( 'NONE', #200, 7.000000000000000000 ) ;
#209 = DIRECTION ( 'NONE',  ( 0.000000000000000000, 0.000000000000000000, 1.000000000000000000 ) ) ;
#210 = VECTOR ( 'NONE', #230, 1000.000000000000000 ) ;
#211 = FACE_OUTER_BOUND ( 'NONE', #241, .T. ) ;
#212 = CALENDAR_DATE ( 2022, 7, 7 ) ;
#213 = FACE_OUTER_BOUND ( 'NONE', #97, .T. ) ;
#214 = EDGE_CURVE ( 'NONE', #140, #118, #48, .T. ) ;
#215 = CARTESIAN_POINT ( 'NONE',  ( 11.00000000000000000, 1.347111479062088405E-15, 7.000000000000000000 ) ) ;
#216 =( NAMED_UNIT ( * ) PLANE_ANGLE_UNIT ( ) SI_UNIT ( $, .RADIAN. ) );
#217 = PERSON_AND_ORGANIZATION ( #65, #111 ) ;
#218 = APPROVAL_DATE_TIME ( #109, #219 ) ;
#219 = APPROVAL ( #192, 'NEURÈENÝ' ) ;
#220 = CIRCLE ( 'NONE', #67, 11.00000000000000000 ) ;
#221 = CLOSED_SHELL ( 'NONE', ( #177, #163, #150, #74, #189, #100, #182 ) ) ;
#222 = EDGE_CURVE ( 'NONE', #227, #118, #44, .T. ) ;
#223 = ORIENTED_EDGE ( 'NONE', *, *, #238, .F. ) ;
#224 = EDGE_CURVE ( 'NONE', #172, #140, #80, .T. ) ;
#225 = ORIENTED_EDGE ( 'NONE', *, *, #201, .T. ) ;
#226 = ORIENTED_EDGE ( 'NONE', *, *, #193, .F. ) ;
#227 = VERTEX_POINT ( 'NONE', #194 ) ;
#228 = PRODUCT_DEFINITION ( 'NEZNÁMÝ', '', #23, #115 ) ;
#229 = SHAPE_DEFINITION_REPRESENTATION ( #38, #84 ) ;
#230 = DIRECTION ( 'NONE',  ( -0.000000000000000000, -0.000000000000000000, -1.000000000000000000 ) ) ;
#231 = DATE_AND_TIME ( #143, #151 ) ;
#232 = CARTESIAN_POINT ( 'NONE',  ( 0.000000000000000000, 0.000000000000000000, 207.0000000000000284 ) ) ;
#233 = CYLINDRICAL_SURFACE ( 'NONE', #251, 11.00000000000000000 ) ;
#234 = CARTESIAN_POINT ( 'NONE',  ( -7.000000000000000000, 0.000000000000000000, 207.0000000000000284 ) ) ;
#235 = APPROVAL_ROLE ( '' ) ;
#236 = CARTESIAN_POINT ( 'NONE',  ( -11.00000000000000000, 0.000000000000000000, 7.000000000000000000 ) ) ;
#237 = PERSON_AND_ORGANIZATION ( #65, #111 ) ;
#238 = EDGE_CURVE ( 'NONE', #2, #199, #136, .T. ) ;
#239 = APPROVAL ( #207, 'NEURÈENÝ' ) ;
#240 = SECURITY_CLASSIFICATION ( '', '', #82 ) ;
#241 = EDGE_LOOP ( 'NONE', ( #155, #98, #198, #156 ) ) ;
#242 = ORIENTED_EDGE ( 'NONE', *, *, #224, .T. ) ;
#243 = ORIENTED_EDGE ( 'NONE', *, *, #157, .T. ) ;
#244 = ORIENTED_EDGE ( 'NONE', *, *, #238, .T. ) ;
#245 = EDGE_CURVE ( 'NONE', #152, #59, #208, .T. ) ;
#246 = PERSON_AND_ORGANIZATION ( #65, #111 ) ;
#247 = VECTOR ( 'NONE', #127, 1000.000000000000000 ) ;
#248 = PERSON_AND_ORGANIZATION_ROLE ( 'design_supplier' ) ;
#249 = CARTESIAN_POINT ( 'NONE',  ( 0.000000000000000000, 0.000000000000000000, 7.000000000000000000 ) ) ;
#250 = PLANE ( 'NONE',  #56 ) ;
#251 = AXIS2_PLACEMENT_3D ( 'NONE', #249, #46, #148 ) ;
#252 = DIRECTION ( 'NONE',  ( 0.000000000000000000, 0.000000000000000000, 1.000000000000000000 ) ) ;
#253 = COORDINATED_UNIVERSAL_TIME_OFFSET ( 1, 0, .AHEAD. ) ;
#254 = CARTESIAN_POINT ( 'NONE',  ( -7.000000000000000000, 0.000000000000000000, 207.0000000000000284 ) ) ;
#255 = DIRECTION ( 'NONE',  ( 1.000000000000000000, 0.000000000000000000, 0.000000000000000000 ) ) ;
ENDSEC;
END-ISO-10303-21;
