ISO-10303-21;
HEADER;
FILE_DESCRIPTION (( 'STEP AP203' ),
    '1' );
FILE_NAME ('a2b4.STEP',
    '2022-07-07T17:19:55',
    ( '' ),
    ( '' ),
    'SwSTEP 2.0',
    'SolidWorks 2019',
    '' );
FILE_SCHEMA (( 'CONFIG_CONTROL_DESIGN' ));
ENDSEC;

DATA;
#1 = DIRECTION ( 'NONE',  ( 1.000000000000000000, 0.000000000000000000, 0.000000000000000000 ) ) ;
#2 = CARTESIAN_POINT ( 'NONE',  ( 0.000000000000000000, 0.000000000000000000, 207.0000000000000284 ) ) ;
#3 = CARTESIAN_POINT ( 'NONE',  ( 6.000000000000000888, 7.347880794884120722E-16, 7.000000000000000000 ) ) ;
#4 = CALENDAR_DATE ( 2022, 7, 7 ) ;
#5 = PERSON_AND_ORGANIZATION ( #8, #107 ) ;
#6 = CC_DESIGN_PERSON_AND_ORGANIZATION_ASSIGNMENT ( #65, #46, ( #166 ) ) ;
#7 = DIRECTION ( 'NONE',  ( 1.000000000000000000, 0.000000000000000000, 0.000000000000000000 ) ) ;
#8 = PERSON ( 'NEURÈENÝ', 'NEURÈENÝ', 'NEURÈENÝ', ('NEURÈENÝ'), ('NEURÈENÝ'), ('NEURÈENÝ') ) ;
#9 = PERSON_AND_ORGANIZATION ( #8, #107 ) ;
#10 = ADVANCED_FACE ( 'NONE', ( #91 ), #169, .T. ) ;
#11 = PERSON_AND_ORGANIZATION ( #8, #107 ) ;
#12 = CIRCLE ( 'NONE', #154, 9.000000000000000000 ) ;
#13 = VERTEX_POINT ( 'NONE', #112 ) ;
#14 = EDGE_CURVE ( 'NONE', #36, #35, #98, .T. ) ;
#15 = ORIENTED_EDGE ( 'NONE', *, *, #230, .T. ) ;
#16 = ORIENTED_EDGE ( 'NONE', *, *, #181, .T. ) ;
#17 = DIRECTION ( 'NONE',  ( 1.000000000000000000, 0.000000000000000000, -0.000000000000000000 ) ) ;
#18 = AXIS2_PLACEMENT_3D ( 'NONE', #109, #187, #17 ) ;
#19 = CARTESIAN_POINT ( 'NONE',  ( 9.000000000000000000, 1.102182119232617714E-15, 7.000000000000000000 ) ) ;
#20 = EDGE_CURVE ( 'NONE', #125, #106, #160, .T. ) ;
#21 = CARTESIAN_POINT ( 'NONE',  ( -6.000000000000000888, 0.000000000000000000, 7.000000000000000000 ) ) ;
#22 =( NAMED_UNIT ( * ) PLANE_ANGLE_UNIT ( ) SI_UNIT ( $, .RADIAN. ) );
#23 = CYLINDRICAL_SURFACE ( 'NONE', #121, 9.000000000000000000 ) ;
#24 = CARTESIAN_POINT ( 'NONE',  ( 6.000000000000000888, 7.347880794884120722E-16, 207.0000000000000284 ) ) ;
#25 = FACE_OUTER_BOUND ( 'NONE', #52, .T. ) ;
#26 = VECTOR ( 'NONE', #56, 1000.000000000000000 ) ;
#27 = MECHANICAL_CONTEXT ( 'NONE', #140, 'mechanical' ) ;
#28 = PRODUCT ( 'a2b4', 'a2b4', '', ( #27 ) ) ;
#29 = CLOSED_SHELL ( 'NONE', ( #10, #49, #208, #163, #143, #82, #85 ) ) ;
#30 = CC_DESIGN_APPROVAL ( #146, ( #244 ) ) ;
#31 = APPROVAL_STATUS ( 'not_yet_approved' ) ;
#32 = EDGE_LOOP ( 'NONE', ( #207, #15, #67, #209 ) ) ;
#33 = ORIENTED_EDGE ( 'NONE', *, *, #162, .T. ) ;
#34 = APPROVAL ( #31, 'NEURÈENÝ' ) ;
#35 = VERTEX_POINT ( 'NONE', #3 ) ;
#36 = VERTEX_POINT ( 'NONE', #21 ) ;
#37 = FACE_OUTER_BOUND ( 'NONE', #165, .T. ) ;
#38 = DIRECTION ( 'NONE',  ( 1.000000000000000000, 0.000000000000000000, 0.000000000000000000 ) ) ;
#39 = DIRECTION ( 'NONE',  ( 0.000000000000000000, 0.000000000000000000, 1.000000000000000000 ) ) ;
#40 = DIRECTION ( 'NONE',  ( 0.000000000000000000, 0.000000000000000000, 1.000000000000000000 ) ) ;
#41 =( LENGTH_UNIT ( ) NAMED_UNIT ( * ) SI_UNIT ( .MILLI., .METRE. ) );
#42 = PLANE ( 'NONE',  #251 ) ;
#43 = DIRECTION ( 'NONE',  ( -1.000000000000000000, 0.000000000000000000, 0.000000000000000000 ) ) ;
#44 = CC_DESIGN_PERSON_AND_ORGANIZATION_ASSIGNMENT ( #11, #179, ( #133 ) ) ;
#45 = APPLICATION_PROTOCOL_DEFINITION ( 'international standard', 'config_control_design', 1994, #140 ) ;
#46 = PERSON_AND_ORGANIZATION_ROLE ( 'classification_officer' ) ;
#47 = DIRECTION ( 'NONE',  ( 1.000000000000000000, 0.000000000000000000, 0.000000000000000000 ) ) ;
#48 = AXIS2_PLACEMENT_3D ( 'NONE', #114, #61, #172 ) ;
#49 = ADVANCED_FACE ( 'NONE', ( #95 ), #23, .T. ) ;
#50 = EDGE_CURVE ( 'NONE', #13, #246, #184, .T. ) ;
#51 = ORIENTED_EDGE ( 'NONE', *, *, #20, .F. ) ;
#52 = EDGE_LOOP ( 'NONE', ( #147, #33 ) ) ;
#53 = AXIS2_PLACEMENT_3D ( 'NONE', #2, #39, #73 ) ;
#54 = ORIENTED_EDGE ( 'NONE', *, *, #214, .T. ) ;
#55 = DIRECTION ( 'NONE',  ( -0.000000000000000000, -0.000000000000000000, -1.000000000000000000 ) ) ;
#56 = DIRECTION ( 'NONE',  ( -0.000000000000000000, -0.000000000000000000, -1.000000000000000000 ) ) ;
#57 = DIRECTION ( 'NONE',  ( -1.000000000000000000, 0.000000000000000000, 0.000000000000000000 ) ) ;
#58 = AXIS2_PLACEMENT_3D ( 'NONE', #68, #55, #129 ) ;
#59 = CARTESIAN_POINT ( 'NONE',  ( 9.000000000000000000, 1.102182119232617714E-15, 0.000000000000000000 ) ) ;
#60 = CARTESIAN_POINT ( 'NONE',  ( -9.000000000000000000, 0.000000000000000000, 7.000000000000000000 ) ) ;
#61 = DIRECTION ( 'NONE',  ( 0.000000000000000000, 0.000000000000000000, 1.000000000000000000 ) ) ;
#62 = COORDINATED_UNIVERSAL_TIME_OFFSET ( 1, 0, .AHEAD. ) ;
#63 = PERSON_AND_ORGANIZATION ( #8, #107 ) ;
#64 = ADVANCED_BREP_SHAPE_REPRESENTATION ( 'a2b4', ( #111, #155 ), #232 ) ;
#65 = PERSON_AND_ORGANIZATION ( #8, #107 ) ;
#66 = ORIENTED_EDGE ( 'NONE', *, *, #14, .F. ) ;
#67 = ORIENTED_EDGE ( 'NONE', *, *, #219, .T. ) ;
#68 = CARTESIAN_POINT ( 'NONE',  ( 0.000000000000000000, 0.000000000000000000, 207.0000000000000284 ) ) ;
#69 = CARTESIAN_POINT ( 'NONE',  ( -6.000000000000000888, 0.000000000000000000, 207.0000000000000284 ) ) ;
#70 = PRODUCT_RELATED_PRODUCT_CATEGORY ( 'detail', '', ( #28 ) ) ;
#71 = PLANE ( 'NONE',  #18 ) ;
#72 = CARTESIAN_POINT ( 'NONE',  ( 0.000000000000000000, 0.000000000000000000, 0.000000000000000000 ) ) ;
#73 = DIRECTION ( 'NONE',  ( 1.000000000000000000, 0.000000000000000000, 0.000000000000000000 ) ) ;
#74 = EDGE_CURVE ( 'NONE', #106, #125, #12, .T. ) ;
#75 = DIRECTION ( 'NONE',  ( 0.000000000000000000, 0.000000000000000000, 1.000000000000000000 ) ) ;
#76 = APPROVAL_STATUS ( 'not_yet_approved' ) ;
#77 = PRODUCT_DEFINITION_SHAPE ( 'NONE', 'NONE',  #244 ) ;
#78 = APPROVAL_STATUS ( 'not_yet_approved' ) ;
#79 = CARTESIAN_POINT ( 'NONE',  ( 9.000000000000000000, 1.102182119232617714E-15, 7.000000000000000000 ) ) ;
#80 = DATE_TIME_ROLE ( 'classification_date' ) ;
#81 = DATE_TIME_ROLE ( 'creation_date' ) ;
#82 = ADVANCED_FACE ( 'NONE', ( #153 ), #134, .T. ) ;
#83 = APPROVAL_DATE_TIME ( #220, #151 ) ;
#84 = CIRCLE ( 'NONE', #53, 6.000000000000000888 ) ;
#85 = ADVANCED_FACE ( 'NONE', ( #231 ), #42, .T. ) ;
#86 = ORIENTED_EDGE ( 'NONE', *, *, #74, .T. ) ;
#87 = AXIS2_PLACEMENT_3D ( 'NONE', #171, #190, #38 ) ;
#88 = AXIS2_PLACEMENT_3D ( 'NONE', #113, #201, #47 ) ;
#89 = ORIENTED_EDGE ( 'NONE', *, *, #206, .T. ) ;
#90 = ORIENTED_EDGE ( 'NONE', *, *, #239, .F. ) ;
#91 = FACE_OUTER_BOUND ( 'NONE', #32, .T. ) ;
#92 = LINE ( 'NONE', #69, #26 ) ;
#93 = VECTOR ( 'NONE', #94, 1000.000000000000000 ) ;
#94 = DIRECTION ( 'NONE',  ( -0.000000000000000000, -0.000000000000000000, -1.000000000000000000 ) ) ;
#95 = FACE_OUTER_BOUND ( 'NONE', #108, .T. ) ;
#96 = DIRECTION ( 'NONE',  ( -0.000000000000000000, -0.000000000000000000, -1.000000000000000000 ) ) ;
#97 = APPLICATION_PROTOCOL_DEFINITION ( 'international standard', 'config_control_design', 1994, #150 ) ;
#98 = CIRCLE ( 'NONE', #203, 6.000000000000000888 ) ;
#99 = DIRECTION ( 'NONE',  ( 0.000000000000000000, 0.000000000000000000, 1.000000000000000000 ) ) ;
#100 = PERSON_AND_ORGANIZATION ( #8, #107 ) ;
#101 = DIRECTION ( 'NONE',  ( -0.000000000000000000, -0.000000000000000000, -1.000000000000000000 ) ) ;
#102 = LOCAL_TIME ( 19, 19, 55.00000000000000000, #141 ) ;
#103 = CC_DESIGN_DATE_AND_TIME_ASSIGNMENT ( #104, #81, ( #244 ) ) ;
#104 = DATE_AND_TIME ( #159, #102 ) ;
#105 = ORIENTED_EDGE ( 'NONE', *, *, #162, .F. ) ;
#106 = VERTEX_POINT ( 'NONE', #59 ) ;
#107 = ORGANIZATION ( 'NEURÈENÝ', 'NEURÈENÝ', '' ) ;
#108 = EDGE_LOOP ( 'NONE', ( #105, #185, #86, #168 ) ) ;
#109 = CARTESIAN_POINT ( 'NONE',  ( 0.000000000000000000, 0.000000000000000000, 7.000000000000000000 ) ) ;
#110 = LINE ( 'NONE', #19, #93 ) ;
#111 = MANIFOLD_SOLID_BREP ( 'Pøidat vysunutím3', #29 ) ;
#112 = CARTESIAN_POINT ( 'NONE',  ( -6.000000000000000888, 0.000000000000000000, 207.0000000000000284 ) ) ;
#113 = CARTESIAN_POINT ( 'NONE',  ( 0.000000000000000000, 0.000000000000000000, 7.000000000000000000 ) ) ;
#114 = CARTESIAN_POINT ( 'NONE',  ( 0.000000000000000000, 0.000000000000000000, 0.000000000000000000 ) ) ;
#115 = FACE_BOUND ( 'NONE', #227, .T. ) ;
#116 = VECTOR ( 'NONE', #191, 1000.000000000000000 ) ;
#117 = LOCAL_TIME ( 19, 19, 55.00000000000000000, #237 ) ;
#118 =( NAMED_UNIT ( * ) SI_UNIT ( $, .STERADIAN. ) SOLID_ANGLE_UNIT ( ) );
#119 = CALENDAR_DATE ( 2022, 7, 7 ) ;
#120 = CARTESIAN_POINT ( 'NONE',  ( 6.000000000000000888, 7.347880794884120722E-16, 207.0000000000000284 ) ) ;
#121 = AXIS2_PLACEMENT_3D ( 'NONE', #192, #149, #229 ) ;
#122 = CC_DESIGN_PERSON_AND_ORGANIZATION_ASSIGNMENT ( #238, #174, ( #28 ) ) ;
#123 = PERSON_AND_ORGANIZATION ( #8, #107 ) ;
#124 = ORIENTED_EDGE ( 'NONE', *, *, #50, .T. ) ;
#125 = VERTEX_POINT ( 'NONE', #213 ) ;
#126 = CC_DESIGN_APPROVAL ( #34, ( #133 ) ) ;
#127 = ORIENTED_EDGE ( 'NONE', *, *, #50, .F. ) ;
#128 = UNCERTAINTY_MEASURE_WITH_UNIT (LENGTH_MEASURE( 1.000000000000000082E-05 ), #41, 'distance_accuracy_value', 'NONE');
#129 = DIRECTION ( 'NONE',  ( -1.000000000000000000, 0.000000000000000000, 0.000000000000000000 ) ) ;
#130 = DIRECTION ( 'NONE',  ( 1.000000000000000000, 0.000000000000000000, -0.000000000000000000 ) ) ;
#131 = CARTESIAN_POINT ( 'NONE',  ( 0.000000000000000000, 0.000000000000000000, 7.000000000000000000 ) ) ;
#132 = AXIS2_PLACEMENT_3D ( 'NONE', #228, #96, #57 ) ;
#133 = PRODUCT_DEFINITION_FORMATION_WITH_SPECIFIED_SOURCE ( 'LIBOVOLNÝ', '', #28, .NOT_KNOWN. ) ;
#134 = CYLINDRICAL_SURFACE ( 'NONE', #132, 6.000000000000000888 ) ;
#135 = DIRECTION ( 'NONE',  ( 1.000000000000000000, 0.000000000000000000, 0.000000000000000000 ) ) ;
#136 = DATE_AND_TIME ( #4, #189 ) ;
#137 = CC_DESIGN_PERSON_AND_ORGANIZATION_ASSIGNMENT ( #123, #175, ( #133 ) ) ;
#138 = AXIS2_PLACEMENT_3D ( 'NONE', #252, #75, #135 ) ;
#139 = APPROVAL_PERSON_ORGANIZATION ( #5, #151, #221 ) ;
#140 = APPLICATION_CONTEXT ( 'configuration controlled 3d designs of mechanical parts and assemblies' ) ;
#141 = COORDINATED_UNIVERSAL_TIME_OFFSET ( 1, 0, .AHEAD. ) ;
#142 = CYLINDRICAL_SURFACE ( 'NONE', #197, 9.000000000000000000 ) ;
#143 = ADVANCED_FACE ( 'NONE', ( #37 ), #188, .F. ) ;
#144 = DATE_AND_TIME ( #119, #117 ) ;
#145 = ORIENTED_EDGE ( 'NONE', *, *, #219, .F. ) ;
#146 = APPROVAL ( #76, 'NEURÈENÝ' ) ;
#147 = ORIENTED_EDGE ( 'NONE', *, *, #239, .T. ) ;
#148 = EDGE_LOOP ( 'NONE', ( #182, #127, #16, #222 ) ) ;
#149 = DIRECTION ( 'NONE',  ( -0.000000000000000000, -0.000000000000000000, -1.000000000000000000 ) ) ;
#150 = APPLICATION_CONTEXT ( 'configuration controlled 3d designs of mechanical parts and assemblies' ) ;
#151 = APPROVAL ( #78, 'NEURÈENÝ' ) ;
#152 = DIRECTION ( 'NONE',  ( -0.000000000000000000, -0.000000000000000000, -1.000000000000000000 ) ) ;
#153 = FACE_OUTER_BOUND ( 'NONE', #148, .T. ) ;
#154 = AXIS2_PLACEMENT_3D ( 'NONE', #72, #40, #156 ) ;
#155 = AXIS2_PLACEMENT_3D ( 'NONE', #233, #236, #215 ) ;
#156 = DIRECTION ( 'NONE',  ( 1.000000000000000000, 0.000000000000000000, 0.000000000000000000 ) ) ;
#157 = APPROVAL_ROLE ( '' ) ;
#158 = PERSON_AND_ORGANIZATION_ROLE ( 'creator' ) ;
#159 = CALENDAR_DATE ( 2022, 7, 7 ) ;
#160 = CIRCLE ( 'NONE', #87, 9.000000000000000000 ) ;
#161 = VECTOR ( 'NONE', #152, 1000.000000000000000 ) ;
#162 = EDGE_CURVE ( 'NONE', #210, #223, #225, .T. ) ;
#163 = ADVANCED_FACE ( 'NONE', ( #115, #25 ), #71, .T. ) ;
#164 = CIRCLE ( 'NONE', #224, 6.000000000000000888 ) ;
#165 = EDGE_LOOP ( 'NONE', ( #51, #247 ) ) ;
#166 = SECURITY_CLASSIFICATION ( '', '', #217 ) ;
#167 = EDGE_LOOP ( 'NONE', ( #249, #90, #89, #226 ) ) ;
#168 = ORIENTED_EDGE ( 'NONE', *, *, #206, .F. ) ;
#169 = CYLINDRICAL_SURFACE ( 'NONE', #58, 6.000000000000000888 ) ;
#170 = LINE ( 'NONE', #255, #161 ) ;
#171 = CARTESIAN_POINT ( 'NONE',  ( 0.000000000000000000, 0.000000000000000000, 0.000000000000000000 ) ) ;
#172 = DIRECTION ( 'NONE',  ( 1.000000000000000000, 0.000000000000000000, -0.000000000000000000 ) ) ;
#173 = FACE_OUTER_BOUND ( 'NONE', #167, .T. ) ;
#174 = PERSON_AND_ORGANIZATION_ROLE ( 'design_owner' ) ;
#175 = PERSON_AND_ORGANIZATION_ROLE ( 'creator' ) ;
#176 = SHAPE_DEFINITION_REPRESENTATION ( #77, #64 ) ;
#177 = APPROVAL_PERSON_ORGANIZATION ( #9, #34, #180 ) ;
#178 = CALENDAR_DATE ( 2022, 7, 7 ) ;
#179 = PERSON_AND_ORGANIZATION_ROLE ( 'design_supplier' ) ;
#180 = APPROVAL_ROLE ( '' ) ;
#181 = EDGE_CURVE ( 'NONE', #13, #36, #92, .T. ) ;
#182 = ORIENTED_EDGE ( 'NONE', *, *, #230, .F. ) ;
#183 = CC_DESIGN_PERSON_AND_ORGANIZATION_ASSIGNMENT ( #100, #158, ( #244 ) ) ;
#184 = CIRCLE ( 'NONE', #250, 6.000000000000000888 ) ;
#185 = ORIENTED_EDGE ( 'NONE', *, *, #194, .T. ) ;
#186 = EDGE_LOOP ( 'NONE', ( #124, #54 ) ) ;
#187 = DIRECTION ( 'NONE',  ( 0.000000000000000000, 0.000000000000000000, 1.000000000000000000 ) ) ;
#188 = PLANE ( 'NONE',  #48 ) ;
#189 = LOCAL_TIME ( 19, 19, 55.00000000000000000, #62 ) ;
#190 = DIRECTION ( 'NONE',  ( 0.000000000000000000, 0.000000000000000000, 1.000000000000000000 ) ) ;
#191 = DIRECTION ( 'NONE',  ( -0.000000000000000000, -0.000000000000000000, -1.000000000000000000 ) ) ;
#192 = CARTESIAN_POINT ( 'NONE',  ( 0.000000000000000000, 0.000000000000000000, 7.000000000000000000 ) ) ;
#193 = CARTESIAN_POINT ( 'NONE',  ( 0.000000000000000000, 0.000000000000000000, 7.000000000000000000 ) ) ;
#194 = EDGE_CURVE ( 'NONE', #210, #106, #110, .T. ) ;
#195 = CARTESIAN_POINT ( 'NONE',  ( 0.000000000000000000, 0.000000000000000000, 207.0000000000000284 ) ) ;
#196 = APPROVAL_DATE_TIME ( #136, #146 ) ;
#197 = AXIS2_PLACEMENT_3D ( 'NONE', #218, #101, #43 ) ;
#198 = CC_DESIGN_SECURITY_CLASSIFICATION ( #166, ( #133 ) ) ;
#199 = LINE ( 'NONE', #24, #116 ) ;
#200 = CALENDAR_DATE ( 2022, 7, 7 ) ;
#201 = DIRECTION ( 'NONE',  ( 0.000000000000000000, 0.000000000000000000, 1.000000000000000000 ) ) ;
#202 = APPROVAL_DATE_TIME ( #241, #34 ) ;
#203 = AXIS2_PLACEMENT_3D ( 'NONE', #131, #234, #212 ) ;
#204 = CIRCLE ( 'NONE', #88, 9.000000000000000000 ) ;
#205 = COORDINATED_UNIVERSAL_TIME_OFFSET ( 1, 0, .AHEAD. ) ;
#206 = EDGE_CURVE ( 'NONE', #223, #125, #170, .T. ) ;
#207 = ORIENTED_EDGE ( 'NONE', *, *, #214, .F. ) ;
#208 = ADVANCED_FACE ( 'NONE', ( #173 ), #142, .T. ) ;
#209 = ORIENTED_EDGE ( 'NONE', *, *, #181, .F. ) ;
#210 = VERTEX_POINT ( 'NONE', #79 ) ;
#211 = CARTESIAN_POINT ( 'NONE',  ( 0.000000000000000000, 0.000000000000000000, 207.0000000000000284 ) ) ;
#212 = DIRECTION ( 'NONE',  ( 1.000000000000000000, 0.000000000000000000, 0.000000000000000000 ) ) ;
#213 = CARTESIAN_POINT ( 'NONE',  ( -9.000000000000000000, 0.000000000000000000, 0.000000000000000000 ) ) ;
#214 = EDGE_CURVE ( 'NONE', #246, #13, #84, .T. ) ;
#215 = DIRECTION ( 'NONE',  ( 1.000000000000000000, 0.000000000000000000, 0.000000000000000000 ) ) ;
#216 = DIRECTION ( 'NONE',  ( 0.000000000000000000, 0.000000000000000000, 1.000000000000000000 ) ) ;
#217 = SECURITY_CLASSIFICATION_LEVEL ( 'unclassified' ) ;
#218 = CARTESIAN_POINT ( 'NONE',  ( 0.000000000000000000, 0.000000000000000000, 7.000000000000000000 ) ) ;
#219 = EDGE_CURVE ( 'NONE', #35, #36, #164, .T. ) ;
#220 = DATE_AND_TIME ( #200, #245 ) ;
#221 = APPROVAL_ROLE ( '' ) ;
#222 = ORIENTED_EDGE ( 'NONE', *, *, #14, .T. ) ;
#223 = VERTEX_POINT ( 'NONE', #60 ) ;
#224 = AXIS2_PLACEMENT_3D ( 'NONE', #193, #235, #7 ) ;
#225 = CIRCLE ( 'NONE', #138, 9.000000000000000000 ) ;
#226 = ORIENTED_EDGE ( 'NONE', *, *, #20, .T. ) ;
#227 = EDGE_LOOP ( 'NONE', ( #66, #145 ) ) ;
#228 = CARTESIAN_POINT ( 'NONE',  ( 0.000000000000000000, 0.000000000000000000, 207.0000000000000284 ) ) ;
#229 = DIRECTION ( 'NONE',  ( -1.000000000000000000, 0.000000000000000000, 0.000000000000000000 ) ) ;
#230 = EDGE_CURVE ( 'NONE', #246, #35, #199, .T. ) ;
#231 = FACE_OUTER_BOUND ( 'NONE', #186, .T. ) ;
#232 =( GEOMETRIC_REPRESENTATION_CONTEXT ( 3 ) GLOBAL_UNCERTAINTY_ASSIGNED_CONTEXT ( ( #128 ) ) GLOBAL_UNIT_ASSIGNED_CONTEXT ( ( #41, #22, #118 ) ) REPRESENTATION_CONTEXT ( 'NONE', 'WORKASPACE' ) );
#233 = CARTESIAN_POINT ( 'NONE',  ( 0.000000000000000000, 0.000000000000000000, 0.000000000000000000 ) ) ;
#234 = DIRECTION ( 'NONE',  ( 0.000000000000000000, 0.000000000000000000, 1.000000000000000000 ) ) ;
#235 = DIRECTION ( 'NONE',  ( 0.000000000000000000, 0.000000000000000000, 1.000000000000000000 ) ) ;
#236 = DIRECTION ( 'NONE',  ( 0.000000000000000000, 0.000000000000000000, 1.000000000000000000 ) ) ;
#237 = COORDINATED_UNIVERSAL_TIME_OFFSET ( 1, 0, .AHEAD. ) ;
#238 = PERSON_AND_ORGANIZATION ( #8, #107 ) ;
#239 = EDGE_CURVE ( 'NONE', #223, #210, #204, .T. ) ;
#240 = LOCAL_TIME ( 19, 19, 55.00000000000000000, #242 ) ;
#241 = DATE_AND_TIME ( #178, #240 ) ;
#242 = COORDINATED_UNIVERSAL_TIME_OFFSET ( 1, 0, .AHEAD. ) ;
#243 = APPROVAL_PERSON_ORGANIZATION ( #63, #146, #157 ) ;
#244 = PRODUCT_DEFINITION ( 'NEZNÁMÝ', '', #133, #254 ) ;
#245 = LOCAL_TIME ( 19, 19, 55.00000000000000000, #205 ) ;
#246 = VERTEX_POINT ( 'NONE', #120 ) ;
#247 = ORIENTED_EDGE ( 'NONE', *, *, #74, .F. ) ;
#248 = CC_DESIGN_DATE_AND_TIME_ASSIGNMENT ( #144, #80, ( #166 ) ) ;
#249 = ORIENTED_EDGE ( 'NONE', *, *, #194, .F. ) ;
#250 = AXIS2_PLACEMENT_3D ( 'NONE', #195, #99, #1 ) ;
#251 = AXIS2_PLACEMENT_3D ( 'NONE', #211, #216, #130 ) ;
#252 = CARTESIAN_POINT ( 'NONE',  ( 0.000000000000000000, 0.000000000000000000, 7.000000000000000000 ) ) ;
#253 = CC_DESIGN_APPROVAL ( #151, ( #166 ) ) ;
#254 = DESIGN_CONTEXT ( 'detailed design', #150, 'design' ) ;
#255 = CARTESIAN_POINT ( 'NONE',  ( -9.000000000000000000, 0.000000000000000000, 7.000000000000000000 ) ) ;
ENDSEC;
END-ISO-10303-21;
