ISO-10303-21;
HEADER;
FILE_DESCRIPTION (( 'STEP AP203' ),
    '1' );
FILE_NAME ('7029.STEP',
    '2022-07-07T17:38:03',
    ( '' ),
    ( '' ),
    'SwSTEP 2.0',
    'SolidWorks 2019',
    '' );
FILE_SCHEMA (( 'CONFIG_CONTROL_DESIGN' ));
ENDSEC;

DATA;
#1 = DIRECTION ( 'NONE',  ( 1.000000000000000000, 0.000000000000000000, 0.000000000000000000 ) ) ;
#2 = APPROVAL_ROLE ( '' ) ;
#3 = AXIS2_PLACEMENT_3D ( 'NONE', #15, #190, #248 ) ;
#4 = DIRECTION ( 'NONE',  ( 0.000000000000000000, 0.000000000000000000, 1.000000000000000000 ) ) ;
#5 = DIRECTION ( 'NONE',  ( 1.000000000000000000, 0.000000000000000000, 0.000000000000000000 ) ) ;
#6 = CARTESIAN_POINT ( 'NONE',  ( 0.000000000000000000, 0.000000000000000000, 5.000000000000000000 ) ) ;
#7 = ORIENTED_EDGE ( 'NONE', *, *, #210, .F. ) ;
#8 = DIRECTION ( 'NONE',  ( -0.000000000000000000, -0.000000000000000000, -1.000000000000000000 ) ) ;
#9 = FACE_OUTER_BOUND ( 'NONE', #242, .T. ) ;
#10 = ORIENTED_EDGE ( 'NONE', *, *, #253, .F. ) ;
#11 = CC_DESIGN_PERSON_AND_ORGANIZATION_ASSIGNMENT ( #62, #167, ( #123 ) ) ;
#12 = CARTESIAN_POINT ( 'NONE',  ( -6.000000000000000888, 0.000000000000000000, 5.000000000000000000 ) ) ;
#13 = CYLINDRICAL_SURFACE ( 'NONE', #101, 3.250000000000000444 ) ;
#14 = ORIENTED_EDGE ( 'NONE', *, *, #26, .T. ) ;
#15 = CARTESIAN_POINT ( 'NONE',  ( 0.000000000000000000, 0.000000000000000000, 5.000000000000000000 ) ) ;
#16 = CLOSED_SHELL ( 'NONE', ( #126, #232, #35, #131, #170, #67, #143 ) ) ;
#17 = DESIGN_CONTEXT ( 'detailed design', #47, 'design' ) ;
#18 = CC_DESIGN_APPROVAL ( #212, ( #99 ) ) ;
#19 = CALENDAR_DATE ( 2022, 7, 7 ) ;
#20 = CC_DESIGN_DATE_AND_TIME_ASSIGNMENT ( #181, #251, ( #99 ) ) ;
#21 = DIRECTION ( 'NONE',  ( 0.000000000000000000, 0.000000000000000000, 1.000000000000000000 ) ) ;
#22 = CALENDAR_DATE ( 2022, 7, 7 ) ;
#23 = DIRECTION ( 'NONE',  ( 0.000000000000000000, 0.000000000000000000, 1.000000000000000000 ) ) ;
#24 = DATE_AND_TIME ( #22, #211 ) ;
#25 = AXIS2_PLACEMENT_3D ( 'NONE', #202, #223, #41 ) ;
#26 = EDGE_CURVE ( 'NONE', #205, #225, #95, .T. ) ;
#27 = CARTESIAN_POINT ( 'NONE',  ( 0.000000000000000000, 0.000000000000000000, 5.000000000000000000 ) ) ;
#28 =( NAMED_UNIT ( * ) SI_UNIT ( $, .STERADIAN. ) SOLID_ANGLE_UNIT ( ) );
#29 = CYLINDRICAL_SURFACE ( 'NONE', #163, 3.250000000000000444 ) ;
#30 = CARTESIAN_POINT ( 'NONE',  ( 0.000000000000000000, 0.000000000000000000, 105.0000000000000142 ) ) ;
#31 = ORIENTED_EDGE ( 'NONE', *, *, #26, .F. ) ;
#32 = FACE_OUTER_BOUND ( 'NONE', #122, .T. ) ;
#33 = ORIENTED_EDGE ( 'NONE', *, *, #149, .T. ) ;
#34 = ORGANIZATION ( 'NEURÈENÝ', 'NEURÈENÝ', '' ) ;
#35 = ADVANCED_FACE ( 'NONE', ( #139 ), #49, .T. ) ;
#36 = AXIS2_PLACEMENT_3D ( 'NONE', #43, #21, #5 ) ;
#37 = APPROVAL_ROLE ( '' ) ;
#38 = PERSON ( 'NEURÈENÝ', 'NEURÈENÝ', 'NEURÈENÝ', ('NEURÈENÝ'), ('NEURÈENÝ'), ('NEURÈENÝ') ) ;
#39 = EDGE_CURVE ( 'NONE', #187, #153, #189, .T. ) ;
#40 = APPROVAL_DATE_TIME ( #164, #212 ) ;
#41 = DIRECTION ( 'NONE',  ( 1.000000000000000000, 0.000000000000000000, 0.000000000000000000 ) ) ;
#42 = CARTESIAN_POINT ( 'NONE',  ( -3.250000000000000444, 0.000000000000000000, 105.0000000000000142 ) ) ;
#43 = CARTESIAN_POINT ( 'NONE',  ( 0.000000000000000000, 0.000000000000000000, 105.0000000000000142 ) ) ;
#44 = ORIENTED_EDGE ( 'NONE', *, *, #253, .T. ) ;
#45 = VECTOR ( 'NONE', #8, 1000.000000000000000 ) ;
#46 = CARTESIAN_POINT ( 'NONE',  ( 6.000000000000000888, 7.347880794884120722E-16, 0.000000000000000000 ) ) ;
#47 = APPLICATION_CONTEXT ( 'configuration controlled 3d designs of mechanical parts and assemblies' ) ;
#48 = PRODUCT_RELATED_PRODUCT_CATEGORY ( 'detail', '', ( #215 ) ) ;
#49 = CYLINDRICAL_SURFACE ( 'NONE', #57, 6.000000000000000888 ) ;
#50 = ORIENTED_EDGE ( 'NONE', *, *, #193, .T. ) ;
#51 = VERTEX_POINT ( 'NONE', #203 ) ;
#52 = EDGE_LOOP ( 'NONE', ( #50, #178 ) ) ;
#53 = DIRECTION ( 'NONE',  ( 0.000000000000000000, 0.000000000000000000, 1.000000000000000000 ) ) ;
#54 = ORIENTED_EDGE ( 'NONE', *, *, #231, .F. ) ;
#55 = ORIENTED_EDGE ( 'NONE', *, *, #103, .F. ) ;
#56 = EDGE_CURVE ( 'NONE', #225, #205, #250, .T. ) ;
#57 = AXIS2_PLACEMENT_3D ( 'NONE', #209, #207, #227 ) ;
#58 = CC_DESIGN_PERSON_AND_ORGANIZATION_ASSIGNMENT ( #130, #107, ( #215 ) ) ;
#59 = CIRCLE ( 'NONE', #162, 6.000000000000000888 ) ;
#60 = EDGE_CURVE ( 'NONE', #51, #225, #135, .T. ) ;
#61 = APPROVAL_ROLE ( '' ) ;
#62 = PERSON_AND_ORGANIZATION ( #38, #34 ) ;
#63 = DATE_TIME_ROLE ( 'creation_date' ) ;
#64 = CYLINDRICAL_SURFACE ( 'NONE', #173, 6.000000000000000888 ) ;
#65 = PERSON_AND_ORGANIZATION ( #38, #34 ) ;
#66 = AXIS2_PLACEMENT_3D ( 'NONE', #71, #53, #229 ) ;
#67 = ADVANCED_FACE ( 'NONE', ( #32 ), #13, .T. ) ;
#68 = CARTESIAN_POINT ( 'NONE',  ( 6.000000000000000888, 7.347880794884120722E-16, 5.000000000000000000 ) ) ;
#69 = APPLICATION_CONTEXT ( 'configuration controlled 3d designs of mechanical parts and assemblies' ) ;
#70 = CC_DESIGN_PERSON_AND_ORGANIZATION_ASSIGNMENT ( #65, #161, ( #84 ) ) ;
#71 = CARTESIAN_POINT ( 'NONE',  ( 0.000000000000000000, 0.000000000000000000, 5.000000000000000000 ) ) ;
#72 =( GEOMETRIC_REPRESENTATION_CONTEXT ( 3 ) GLOBAL_UNCERTAINTY_ASSIGNED_CONTEXT ( ( #88 ) ) GLOBAL_UNIT_ASSIGNED_CONTEXT ( ( #236, #113, #28 ) ) REPRESENTATION_CONTEXT ( 'NONE', 'WORKASPACE' ) );
#73 = ORIENTED_EDGE ( 'NONE', *, *, #193, .F. ) ;
#74 = DIRECTION ( 'NONE',  ( -0.000000000000000000, -0.000000000000000000, -1.000000000000000000 ) ) ;
#75 = ORIENTED_EDGE ( 'NONE', *, *, #247, .F. ) ;
#76 = CARTESIAN_POINT ( 'NONE',  ( 0.000000000000000000, 0.000000000000000000, 5.000000000000000000 ) ) ;
#77 = ORIENTED_EDGE ( 'NONE', *, *, #149, .F. ) ;
#78 = CARTESIAN_POINT ( 'NONE',  ( 3.250000000000000444, 3.980102097228898231E-16, 105.0000000000000142 ) ) ;
#79 = CIRCLE ( 'NONE', #140, 6.000000000000000888 ) ;
#80 = ORIENTED_EDGE ( 'NONE', *, *, #56, .T. ) ;
#81 = EDGE_CURVE ( 'NONE', #102, #153, #98, .T. ) ;
#82 = CC_DESIGN_APPROVAL ( #196, ( #84 ) ) ;
#83 = PERSON_AND_ORGANIZATION ( #38, #34 ) ;
#84 = PRODUCT_DEFINITION_FORMATION_WITH_SPECIFIED_SOURCE ( 'LIBOVOLNÝ', '', #215, .NOT_KNOWN. ) ;
#85 = CALENDAR_DATE ( 2022, 7, 7 ) ;
#86 = APPROVAL_STATUS ( 'not_yet_approved' ) ;
#87 = CARTESIAN_POINT ( 'NONE',  ( -6.000000000000000888, 0.000000000000000000, 0.000000000000000000 ) ) ;
#88 = UNCERTAINTY_MEASURE_WITH_UNIT (LENGTH_MEASURE( 1.000000000000000082E-05 ), #236, 'distance_accuracy_value', 'NONE');
#89 = CARTESIAN_POINT ( 'NONE',  ( 3.250000000000000444, 3.980102097228898231E-16, 5.000000000000000000 ) ) ;
#90 = COORDINATED_UNIVERSAL_TIME_OFFSET ( 1, 0, .AHEAD. ) ;
#91 = DIRECTION ( 'NONE',  ( 1.000000000000000000, 0.000000000000000000, 0.000000000000000000 ) ) ;
#92 = DIRECTION ( 'NONE',  ( 0.000000000000000000, 0.000000000000000000, 1.000000000000000000 ) ) ;
#93 = ORIENTED_EDGE ( 'NONE', *, *, #60, .F. ) ;
#94 = CARTESIAN_POINT ( 'NONE',  ( 0.000000000000000000, 0.000000000000000000, 5.000000000000000000 ) ) ;
#95 = CIRCLE ( 'NONE', #66, 3.250000000000000444 ) ;
#96 = ORIENTED_EDGE ( 'NONE', *, *, #103, .T. ) ;
#97 = DIRECTION ( 'NONE',  ( -1.000000000000000000, 0.000000000000000000, 0.000000000000000000 ) ) ;
#98 = LINE ( 'NONE', #177, #198 ) ;
#99 = SECURITY_CLASSIFICATION ( '', '', #129 ) ;
#100 = DIRECTION ( 'NONE',  ( -0.000000000000000000, -0.000000000000000000, -1.000000000000000000 ) ) ;
#101 = AXIS2_PLACEMENT_3D ( 'NONE', #192, #100, #114 ) ;
#102 = VERTEX_POINT ( 'NONE', #12 ) ;
#103 = EDGE_CURVE ( 'NONE', #102, #157, #180, .T. ) ;
#104 = CALENDAR_DATE ( 2022, 7, 7 ) ;
#105 = AXIS2_PLACEMENT_3D ( 'NONE', #30, #117, #175 ) ;
#106 = LOCAL_TIME ( 19, 38, 3.000000000000000000, #90 ) ;
#107 = PERSON_AND_ORGANIZATION_ROLE ( 'design_owner' ) ;
#108 = APPROVAL ( #86, 'NEURÈENÝ' ) ;
#109 = DIRECTION ( 'NONE',  ( -0.000000000000000000, -0.000000000000000000, -1.000000000000000000 ) ) ;
#110 = FACE_OUTER_BOUND ( 'NONE', #136, .T. ) ;
#111 = APPROVAL_DATE_TIME ( #24, #108 ) ;
#112 = CC_DESIGN_PERSON_AND_ORGANIZATION_ASSIGNMENT ( #141, #128, ( #99 ) ) ;
#113 =( NAMED_UNIT ( * ) PLANE_ANGLE_UNIT ( ) SI_UNIT ( $, .RADIAN. ) );
#114 = DIRECTION ( 'NONE',  ( -1.000000000000000000, 0.000000000000000000, 0.000000000000000000 ) ) ;
#115 = CARTESIAN_POINT ( 'NONE',  ( -3.250000000000000444, 0.000000000000000000, 5.000000000000000000 ) ) ;
#116 = CARTESIAN_POINT ( 'NONE',  ( 0.000000000000000000, 0.000000000000000000, 105.0000000000000142 ) ) ;
#117 = DIRECTION ( 'NONE',  ( 0.000000000000000000, 0.000000000000000000, 1.000000000000000000 ) ) ;
#118 = AXIS2_PLACEMENT_3D ( 'NONE', #246, #119, #137 ) ;
#119 = DIRECTION ( 'NONE',  ( 0.000000000000000000, 0.000000000000000000, 1.000000000000000000 ) ) ;
#120 = ORIENTED_EDGE ( 'NONE', *, *, #39, .F. ) ;
#121 = VERTEX_POINT ( 'NONE', #224 ) ;
#122 = EDGE_LOOP ( 'NONE', ( #93, #73, #245, #14 ) ) ;
#123 = PRODUCT_DEFINITION ( 'NEZNÁMÝ', '', #84, #17 ) ;
#124 = APPROVAL_PERSON_ORGANIZATION ( #184, #196, #2 ) ;
#125 = CC_DESIGN_SECURITY_CLASSIFICATION ( #99, ( #84 ) ) ;
#126 = ADVANCED_FACE ( 'NONE', ( #134 ), #29, .T. ) ;
#127 = APPROVAL_DATE_TIME ( #219, #196 ) ;
#128 = PERSON_AND_ORGANIZATION_ROLE ( 'classification_officer' ) ;
#129 = SECURITY_CLASSIFICATION_LEVEL ( 'unclassified' ) ;
#130 = PERSON_AND_ORGANIZATION ( #38, #34 ) ;
#131 = ADVANCED_FACE ( 'NONE', ( #188, #9 ), #155, .T. ) ;
#132 = DIRECTION ( 'NONE',  ( 0.000000000000000000, 0.000000000000000000, 1.000000000000000000 ) ) ;
#133 = DIRECTION ( 'NONE',  ( -0.000000000000000000, -0.000000000000000000, -1.000000000000000000 ) ) ;
#134 = FACE_OUTER_BOUND ( 'NONE', #172, .T. ) ;
#135 = LINE ( 'NONE', #78, #145 ) ;
#136 = EDGE_LOOP ( 'NONE', ( #10, #120 ) ) ;
#137 = DIRECTION ( 'NONE',  ( 1.000000000000000000, 0.000000000000000000, 0.000000000000000000 ) ) ;
#138 = ORIENTED_EDGE ( 'NONE', *, *, #81, .F. ) ;
#139 = FACE_OUTER_BOUND ( 'NONE', #194, .T. ) ;
#140 = AXIS2_PLACEMENT_3D ( 'NONE', #76, #132, #91 ) ;
#141 = PERSON_AND_ORGANIZATION ( #38, #34 ) ;
#142 = SHAPE_DEFINITION_REPRESENTATION ( #165, #199 ) ;
#143 = ADVANCED_FACE ( 'NONE', ( #204 ), #226, .T. ) ;
#144 = APPROVAL_STATUS ( 'not_yet_approved' ) ;
#145 = VECTOR ( 'NONE', #191, 1000.000000000000000 ) ;
#146 = CARTESIAN_POINT ( 'NONE',  ( 0.000000000000000000, 0.000000000000000000, 0.000000000000000000 ) ) ;
#147 = FACE_OUTER_BOUND ( 'NONE', #208, .T. ) ;
#148 = CARTESIAN_POINT ( 'NONE',  ( 6.000000000000000888, 7.347880794884120722E-16, 5.000000000000000000 ) ) ;
#149 = EDGE_CURVE ( 'NONE', #157, #102, #79, .T. ) ;
#150 = LOCAL_TIME ( 19, 38, 3.000000000000000000, #254 ) ;
#151 = AXIS2_PLACEMENT_3D ( 'NONE', #146, #220, #218 ) ;
#152 = DIRECTION ( 'NONE',  ( 1.000000000000000000, 0.000000000000000000, 0.000000000000000000 ) ) ;
#153 = VERTEX_POINT ( 'NONE', #87 ) ;
#154 = CC_DESIGN_PERSON_AND_ORGANIZATION_ASSIGNMENT ( #83, #169, ( #84 ) ) ;
#155 = PLANE ( 'NONE',  #185 ) ;
#156 = MANIFOLD_SOLID_BREP ( 'Pøidat vysunutím3', #16 ) ;
#157 = VERTEX_POINT ( 'NONE', #148 ) ;
#158 = ORIENTED_EDGE ( 'NONE', *, *, #60, .T. ) ;
#159 = ORIENTED_EDGE ( 'NONE', *, *, #81, .T. ) ;
#160 = CIRCLE ( 'NONE', #36, 3.250000000000000444 ) ;
#161 = PERSON_AND_ORGANIZATION_ROLE ( 'creator' ) ;
#162 = AXIS2_PLACEMENT_3D ( 'NONE', #200, #23, #1 ) ;
#163 = AXIS2_PLACEMENT_3D ( 'NONE', #116, #74, #97 ) ;
#164 = DATE_AND_TIME ( #85, #216 ) ;
#165 = PRODUCT_DEFINITION_SHAPE ( 'NONE', 'NONE',  #123 ) ;
#166 = LINE ( 'NONE', #42, #45 ) ;
#167 = PERSON_AND_ORGANIZATION_ROLE ( 'creator' ) ;
#168 = CARTESIAN_POINT ( 'NONE',  ( 0.000000000000000000, 0.000000000000000000, 0.000000000000000000 ) ) ;
#169 = PERSON_AND_ORGANIZATION_ROLE ( 'design_supplier' ) ;
#170 = ADVANCED_FACE ( 'NONE', ( #110 ), #171, .F. ) ;
#171 = PLANE ( 'NONE',  #238 ) ;
#172 = EDGE_LOOP ( 'NONE', ( #7, #158, #80, #54 ) ) ;
#173 = AXIS2_PLACEMENT_3D ( 'NONE', #27, #133, #241 ) ;
#174 = DIRECTION ( 'NONE',  ( 0.000000000000000000, 0.000000000000000000, 1.000000000000000000 ) ) ;
#175 = DIRECTION ( 'NONE',  ( 1.000000000000000000, 0.000000000000000000, -0.000000000000000000 ) ) ;
#176 = ORIENTED_EDGE ( 'NONE', *, *, #56, .F. ) ;
#177 = CARTESIAN_POINT ( 'NONE',  ( -6.000000000000000888, 0.000000000000000000, 5.000000000000000000 ) ) ;
#178 = ORIENTED_EDGE ( 'NONE', *, *, #210, .T. ) ;
#179 = VECTOR ( 'NONE', #109, 1000.000000000000000 ) ;
#180 = CIRCLE ( 'NONE', #206, 6.000000000000000888 ) ;
#181 = DATE_AND_TIME ( #104, #150 ) ;
#182 = APPROVAL_PERSON_ORGANIZATION ( #183, #108, #61 ) ;
#183 = PERSON_AND_ORGANIZATION ( #38, #34 ) ;
#184 = PERSON_AND_ORGANIZATION ( #38, #34 ) ;
#185 = AXIS2_PLACEMENT_3D ( 'NONE', #94, #174, #244 ) ;
#186 = DIRECTION ( 'NONE',  ( -0.000000000000000000, -0.000000000000000000, -1.000000000000000000 ) ) ;
#187 = VERTEX_POINT ( 'NONE', #46 ) ;
#188 = FACE_BOUND ( 'NONE', #249, .T. ) ;
#189 = CIRCLE ( 'NONE', #118, 6.000000000000000888 ) ;
#190 = DIRECTION ( 'NONE',  ( 0.000000000000000000, 0.000000000000000000, 1.000000000000000000 ) ) ;
#191 = DIRECTION ( 'NONE',  ( -0.000000000000000000, -0.000000000000000000, -1.000000000000000000 ) ) ;
#192 = CARTESIAN_POINT ( 'NONE',  ( 0.000000000000000000, 0.000000000000000000, 105.0000000000000142 ) ) ;
#193 = EDGE_CURVE ( 'NONE', #121, #51, #160, .T. ) ;
#194 = EDGE_LOOP ( 'NONE', ( #75, #55, #159, #44 ) ) ;
#195 = LOCAL_TIME ( 19, 38, 3.000000000000000000, #233 ) ;
#196 = APPROVAL ( #144, 'NEURÈENÝ' ) ;
#197 = COORDINATED_UNIVERSAL_TIME_OFFSET ( 1, 0, .AHEAD. ) ;
#198 = VECTOR ( 'NONE', #186, 1000.000000000000000 ) ;
#199 = ADVANCED_BREP_SHAPE_REPRESENTATION ( '7029', ( #156, #151 ), #72 ) ;
#200 = CARTESIAN_POINT ( 'NONE',  ( 0.000000000000000000, 0.000000000000000000, 0.000000000000000000 ) ) ;
#201 = APPLICATION_PROTOCOL_DEFINITION ( 'international standard', 'config_control_design', 1994, #69 ) ;
#202 = CARTESIAN_POINT ( 'NONE',  ( 0.000000000000000000, 0.000000000000000000, 105.0000000000000142 ) ) ;
#203 = CARTESIAN_POINT ( 'NONE',  ( 3.250000000000000444, 3.980102097228898231E-16, 105.0000000000000142 ) ) ;
#204 = FACE_OUTER_BOUND ( 'NONE', #52, .T. ) ;
#205 = VERTEX_POINT ( 'NONE', #115 ) ;
#206 = AXIS2_PLACEMENT_3D ( 'NONE', #6, #92, #152 ) ;
#207 = DIRECTION ( 'NONE',  ( -0.000000000000000000, -0.000000000000000000, -1.000000000000000000 ) ) ;
#208 = EDGE_LOOP ( 'NONE', ( #77, #230, #228, #138 ) ) ;
#209 = CARTESIAN_POINT ( 'NONE',  ( 0.000000000000000000, 0.000000000000000000, 5.000000000000000000 ) ) ;
#210 = EDGE_CURVE ( 'NONE', #51, #121, #243, .T. ) ;
#211 = LOCAL_TIME ( 19, 38, 3.000000000000000000, #197 ) ;
#212 = APPROVAL ( #237, 'NEURÈENÝ' ) ;
#213 = APPROVAL_PERSON_ORGANIZATION ( #214, #212, #37 ) ;
#214 = PERSON_AND_ORGANIZATION ( #38, #34 ) ;
#215 = PRODUCT ( '7029', '7029', '', ( #221 ) ) ;
#216 = LOCAL_TIME ( 19, 38, 3.000000000000000000, #252 ) ;
#217 = CC_DESIGN_DATE_AND_TIME_ASSIGNMENT ( #240, #63, ( #123 ) ) ;
#218 = DIRECTION ( 'NONE',  ( 1.000000000000000000, 0.000000000000000000, 0.000000000000000000 ) ) ;
#219 = DATE_AND_TIME ( #19, #106 ) ;
#220 = DIRECTION ( 'NONE',  ( 0.000000000000000000, 0.000000000000000000, 1.000000000000000000 ) ) ;
#221 = MECHANICAL_CONTEXT ( 'NONE', #69, 'mechanical' ) ;
#222 = CC_DESIGN_APPROVAL ( #108, ( #123 ) ) ;
#223 = DIRECTION ( 'NONE',  ( 0.000000000000000000, 0.000000000000000000, 1.000000000000000000 ) ) ;
#224 = CARTESIAN_POINT ( 'NONE',  ( -3.250000000000000444, 0.000000000000000000, 105.0000000000000142 ) ) ;
#225 = VERTEX_POINT ( 'NONE', #89 ) ;
#226 = PLANE ( 'NONE',  #105 ) ;
#227 = DIRECTION ( 'NONE',  ( -1.000000000000000000, 0.000000000000000000, 0.000000000000000000 ) ) ;
#228 = ORIENTED_EDGE ( 'NONE', *, *, #39, .T. ) ;
#229 = DIRECTION ( 'NONE',  ( 1.000000000000000000, 0.000000000000000000, 0.000000000000000000 ) ) ;
#230 = ORIENTED_EDGE ( 'NONE', *, *, #247, .T. ) ;
#231 = EDGE_CURVE ( 'NONE', #121, #205, #166, .T. ) ;
#232 = ADVANCED_FACE ( 'NONE', ( #147 ), #64, .T. ) ;
#233 = COORDINATED_UNIVERSAL_TIME_OFFSET ( 1, 0, .AHEAD. ) ;
#234 = APPLICATION_PROTOCOL_DEFINITION ( 'international standard', 'config_control_design', 1994, #47 ) ;
#235 = CALENDAR_DATE ( 2022, 7, 7 ) ;
#236 =( LENGTH_UNIT ( ) NAMED_UNIT ( * ) SI_UNIT ( .MILLI., .METRE. ) );
#237 = APPROVAL_STATUS ( 'not_yet_approved' ) ;
#238 = AXIS2_PLACEMENT_3D ( 'NONE', #168, #4, #239 ) ;
#239 = DIRECTION ( 'NONE',  ( 1.000000000000000000, 0.000000000000000000, -0.000000000000000000 ) ) ;
#240 = DATE_AND_TIME ( #235, #195 ) ;
#241 = DIRECTION ( 'NONE',  ( -1.000000000000000000, 0.000000000000000000, 0.000000000000000000 ) ) ;
#242 = EDGE_LOOP ( 'NONE', ( #96, #33 ) ) ;
#243 = CIRCLE ( 'NONE', #25, 3.250000000000000444 ) ;
#244 = DIRECTION ( 'NONE',  ( 1.000000000000000000, 0.000000000000000000, -0.000000000000000000 ) ) ;
#245 = ORIENTED_EDGE ( 'NONE', *, *, #231, .T. ) ;
#246 = CARTESIAN_POINT ( 'NONE',  ( 0.000000000000000000, 0.000000000000000000, 0.000000000000000000 ) ) ;
#247 = EDGE_CURVE ( 'NONE', #157, #187, #255, .T. ) ;
#248 = DIRECTION ( 'NONE',  ( 1.000000000000000000, 0.000000000000000000, 0.000000000000000000 ) ) ;
#249 = EDGE_LOOP ( 'NONE', ( #31, #176 ) ) ;
#250 = CIRCLE ( 'NONE', #3, 3.250000000000000444 ) ;
#251 = DATE_TIME_ROLE ( 'classification_date' ) ;
#252 = COORDINATED_UNIVERSAL_TIME_OFFSET ( 1, 0, .AHEAD. ) ;
#253 = EDGE_CURVE ( 'NONE', #153, #187, #59, .T. ) ;
#254 = COORDINATED_UNIVERSAL_TIME_OFFSET ( 1, 0, .AHEAD. ) ;
#255 = LINE ( 'NONE', #68, #179 ) ;
ENDSEC;
END-ISO-10303-21;
