ISO-10303-21;
HEADER;
FILE_DESCRIPTION (( 'STEP AP203' ),
    '1' );
FILE_NAME ('e09d.STEP',
    '2023-02-13T16:55:47',
    ( '' ),
    ( '' ),
    'SwSTEP 2.0',
    'SolidWorks 2019',
    '' );
FILE_SCHEMA (( 'CONFIG_CONTROL_DESIGN' ));
ENDSEC;

DATA;
#1 = CIRCLE ( 'NONE', #154, 1.000000000000000000 ) ;
#2 = VERTEX_POINT ( 'NONE', #215 ) ;
#3 = ORIENTED_EDGE ( 'NONE', *, *, #76, .F. ) ;
#4 = DIRECTION ( 'NONE',  ( 0.000000000000000000, 0.000000000000000000, 1.000000000000000000 ) ) ;
#5 = EDGE_CURVE ( 'NONE', #212, #65, #120, .T. ) ;
#6 = EDGE_LOOP ( 'NONE', ( #112, #95, #71, #28 ) ) ;
#7 = ORIENTED_EDGE ( 'NONE', *, *, #94, .F. ) ;
#8 = PERSON_AND_ORGANIZATION ( #67, #116 ) ;
#9 = DIRECTION ( 'NONE',  ( -0.000000000000000000, -0.000000000000000000, -1.000000000000000000 ) ) ;
#10 = APPROVAL_ROLE ( '' ) ;
#11 = APPROVAL_PERSON_ORGANIZATION ( #121, #39, #10 ) ;
#12 = ADVANCED_FACE ( 'NONE', ( #247 ), #233, .T. ) ;
#13 = DIRECTION ( 'NONE',  ( -1.000000000000000000, 0.000000000000000000, 0.000000000000000000 ) ) ;
#14 = DIRECTION ( 'NONE',  ( 0.000000000000000000, 0.000000000000000000, 1.000000000000000000 ) ) ;
#15 = CARTESIAN_POINT ( 'NONE',  ( 0.000000000000000000, 0.000000000000000000, 2.000000000000000000 ) ) ;
#16 = APPROVAL_PERSON_ORGANIZATION ( #26, #193, #87 ) ;
#17 = DIRECTION ( 'NONE',  ( -0.000000000000000000, -0.000000000000000000, -1.000000000000000000 ) ) ;
#18 = ADVANCED_FACE ( 'NONE', ( #118 ), #220, .T. ) ;
#19 = ORIENTED_EDGE ( 'NONE', *, *, #5, .T. ) ;
#20 = CALENDAR_DATE ( 2023, 13, 2 ) ;
#21 = VERTEX_POINT ( 'NONE', #250 ) ;
#22 = DIRECTION ( 'NONE',  ( 1.000000000000000000, 0.000000000000000000, 0.000000000000000000 ) ) ;
#23 = ORIENTED_EDGE ( 'NONE', *, *, #59, .T. ) ;
#24 = DATE_AND_TIME ( #211, #47 ) ;
#25 = ORIENTED_EDGE ( 'NONE', *, *, #222, .F. ) ;
#26 = PERSON_AND_ORGANIZATION ( #67, #116 ) ;
#27 = AXIS2_PLACEMENT_3D ( 'NONE', #51, #9, #30 ) ;
#28 = ORIENTED_EDGE ( 'NONE', *, *, #140, .F. ) ;
#29 = APPLICATION_CONTEXT ( 'configuration controlled 3d designs of mechanical parts and assemblies' ) ;
#30 = DIRECTION ( 'NONE',  ( -1.000000000000000000, 0.000000000000000000, 0.000000000000000000 ) ) ;
#31 = COORDINATED_UNIVERSAL_TIME_OFFSET ( 1, 0, .AHEAD. ) ;
#32 = APPROVAL_PERSON_ORGANIZATION ( #232, #231, #166 ) ;
#33 = EDGE_CURVE ( 'NONE', #227, #68, #251, .T. ) ;
#34 = AXIS2_PLACEMENT_3D ( 'NONE', #62, #253, #160 ) ;
#35 = DIRECTION ( 'NONE',  ( 1.000000000000000000, 0.000000000000000000, -0.000000000000000000 ) ) ;
#36 = CARTESIAN_POINT ( 'NONE',  ( -1.000000000000000000, 0.000000000000000000, 2.000000000000000000 ) ) ;
#37 = CYLINDRICAL_SURFACE ( 'NONE', #171, 2.000000000000000000 ) ;
#38 = DIRECTION ( 'NONE',  ( 1.000000000000000000, 0.000000000000000000, 0.000000000000000000 ) ) ;
#39 = APPROVAL ( #138, 'NEURÈENÝ' ) ;
#40 = CIRCLE ( 'NONE', #209, 2.000000000000000000 ) ;
#41 = ADVANCED_FACE ( 'NONE', ( #187, #57 ), #100, .T. ) ;
#42 = DIRECTION ( 'NONE',  ( -0.000000000000000000, -0.000000000000000000, -1.000000000000000000 ) ) ;
#43 = DATE_TIME_ROLE ( 'creation_date' ) ;
#44 = MANIFOLD_SOLID_BREP ( 'Pøidat vysunutím3', #136 ) ;
#45 = VERTEX_POINT ( 'NONE', #54 ) ;
#46 = APPROVAL_DATE_TIME ( #246, #193 ) ;
#47 = LOCAL_TIME ( 17, 55, 47.00000000000000000, #133 ) ;
#48 = APPROVAL_DATE_TIME ( #189, #231 ) ;
#49 = ORIENTED_EDGE ( 'NONE', *, *, #5, .F. ) ;
#50 = APPLICATION_PROTOCOL_DEFINITION ( 'international standard', 'config_control_design', 1994, #29 ) ;
#51 = CARTESIAN_POINT ( 'NONE',  ( 0.000000000000000000, 0.000000000000000000, 100.0000000000000000 ) ) ;
#52 = CIRCLE ( 'NONE', #218, 2.000000000000000000 ) ;
#53 = ADVANCED_BREP_SHAPE_REPRESENTATION ( 'e09d', ( #44, #148 ), #184 ) ;
#54 = CARTESIAN_POINT ( 'NONE',  ( -1.000000000000000000, 0.000000000000000000, 100.0000000000000000 ) ) ;
#55 = DIRECTION ( 'NONE',  ( -0.000000000000000000, -0.000000000000000000, -1.000000000000000000 ) ) ;
#56 = AXIS2_PLACEMENT_3D ( 'NONE', #194, #4, #22 ) ;
#57 = FACE_OUTER_BOUND ( 'NONE', #74, .T. ) ;
#58 = CARTESIAN_POINT ( 'NONE',  ( 1.000000000000000000, 1.224646799147353207E-16, 100.0000000000000000 ) ) ;
#59 = EDGE_CURVE ( 'NONE', #2, #45, #97, .T. ) ;
#60 = CC_DESIGN_PERSON_AND_ORGANIZATION_ASSIGNMENT ( #69, #153, ( #108 ) ) ;
#61 = CIRCLE ( 'NONE', #234, 1.000000000000000000 ) ;
#62 = CARTESIAN_POINT ( 'NONE',  ( 0.000000000000000000, 0.000000000000000000, 0.000000000000000000 ) ) ;
#63 = ORIENTED_EDGE ( 'NONE', *, *, #76, .T. ) ;
#64 = COORDINATED_UNIVERSAL_TIME_OFFSET ( 1, 0, .AHEAD. ) ;
#65 = VERTEX_POINT ( 'NONE', #255 ) ;
#66 = CALENDAR_DATE ( 2023, 13, 2 ) ;
#67 = PERSON ( 'NEURÈENÝ', 'NEURÈENÝ', 'NEURÈENÝ', ('NEURÈENÝ'), ('NEURÈENÝ'), ('NEURÈENÝ') ) ;
#68 = VERTEX_POINT ( 'NONE', #144 ) ;
#69 = PERSON_AND_ORGANIZATION ( #67, #116 ) ;
#70 = AXIS2_PLACEMENT_3D ( 'NONE', #137, #77, #195 ) ;
#71 = ORIENTED_EDGE ( 'NONE', *, *, #122, .T. ) ;
#72 = CC_DESIGN_APPROVAL ( #231, ( #114 ) ) ;
#73 = CARTESIAN_POINT ( 'NONE',  ( 0.000000000000000000, 0.000000000000000000, 0.000000000000000000 ) ) ;
#74 = EDGE_LOOP ( 'NONE', ( #170, #109 ) ) ;
#75 = DATE_AND_TIME ( #66, #177 ) ;
#76 = EDGE_CURVE ( 'NONE', #2, #65, #99, .T. ) ;
#77 = DIRECTION ( 'NONE',  ( 0.000000000000000000, 0.000000000000000000, 1.000000000000000000 ) ) ;
#78 = DATE_AND_TIME ( #79, #252 ) ;
#79 = CALENDAR_DATE ( 2023, 13, 2 ) ;
#80 = DIRECTION ( 'NONE',  ( 0.000000000000000000, 0.000000000000000000, 1.000000000000000000 ) ) ;
#81 = DIRECTION ( 'NONE',  ( 0.000000000000000000, 0.000000000000000000, 1.000000000000000000 ) ) ;
#82 = PLANE ( 'NONE',  #85 ) ;
#83 = ADVANCED_FACE ( 'NONE', ( #240 ), #82, .F. ) ;
#84 = DIRECTION ( 'NONE',  ( 0.000000000000000000, 0.000000000000000000, 1.000000000000000000 ) ) ;
#85 = AXIS2_PLACEMENT_3D ( 'NONE', #86, #124, #225 ) ;
#86 = CARTESIAN_POINT ( 'NONE',  ( 0.000000000000000000, 0.000000000000000000, 0.000000000000000000 ) ) ;
#87 = APPROVAL_ROLE ( '' ) ;
#88 = EDGE_LOOP ( 'NONE', ( #3, #110, #167, #19 ) ) ;
#89 = PERSON_AND_ORGANIZATION ( #67, #116 ) ;
#90 = ORIENTED_EDGE ( 'NONE', *, *, #59, .F. ) ;
#91 = APPLICATION_PROTOCOL_DEFINITION ( 'international standard', 'config_control_design', 1994, #178 ) ;
#92 = CC_DESIGN_APPROVAL ( #193, ( #139 ) ) ;
#93 = DIRECTION ( 'NONE',  ( 0.000000000000000000, 0.000000000000000000, 1.000000000000000000 ) ) ;
#94 = EDGE_CURVE ( 'NONE', #45, #212, #203, .T. ) ;
#95 = ORIENTED_EDGE ( 'NONE', *, *, #33, .T. ) ;
#96 = EDGE_LOOP ( 'NONE', ( #90, #63, #174, #7 ) ) ;
#97 = CIRCLE ( 'NONE', #130, 1.000000000000000000 ) ;
#98 = CIRCLE ( 'NONE', #56, 2.000000000000000000 ) ;
#99 = LINE ( 'NONE', #58, #217 ) ;
#100 = PLANE ( 'NONE',  #115 ) ;
#101 = PRODUCT_DEFINITION_SHAPE ( 'NONE', 'NONE',  #114 ) ;
#102 = DIRECTION ( 'NONE',  ( 1.000000000000000000, 0.000000000000000000, -0.000000000000000000 ) ) ;
#103 = LOCAL_TIME ( 17, 55, 47.00000000000000000, #113 ) ;
#104 = DIRECTION ( 'NONE',  ( 1.000000000000000000, 0.000000000000000000, 0.000000000000000000 ) ) ;
#105 = CARTESIAN_POINT ( 'NONE',  ( 2.000000000000000000, 2.449293598294706414E-16, 2.000000000000000000 ) ) ;
#106 = EDGE_LOOP ( 'NONE', ( #190, #243 ) ) ;
#107 = DIRECTION ( 'NONE',  ( -0.000000000000000000, -0.000000000000000000, -1.000000000000000000 ) ) ;
#108 = SECURITY_CLASSIFICATION ( '', '', #242 ) ;
#109 = ORIENTED_EDGE ( 'NONE', *, *, #235, .T. ) ;
#110 = ORIENTED_EDGE ( 'NONE', *, *, #165, .F. ) ;
#111 = CARTESIAN_POINT ( 'NONE',  ( 0.000000000000000000, 0.000000000000000000, 100.0000000000000000 ) ) ;
#112 = ORIENTED_EDGE ( 'NONE', *, *, #235, .F. ) ;
#113 = COORDINATED_UNIVERSAL_TIME_OFFSET ( 1, 0, .AHEAD. ) ;
#114 = PRODUCT_DEFINITION ( 'NEZNÁMÝ', '', #139, #127 ) ;
#115 = AXIS2_PLACEMENT_3D ( 'NONE', #15, #80, #102 ) ;
#116 = ORGANIZATION ( 'NEURÈENÝ', 'NEURÈENÝ', '' ) ;
#117 = ORIENTED_EDGE ( 'NONE', *, *, #140, .T. ) ;
#118 = FACE_OUTER_BOUND ( 'NONE', #155, .T. ) ;
#119 = SHAPE_DEFINITION_REPRESENTATION ( #101, #53 ) ;
#120 = CIRCLE ( 'NONE', #70, 1.000000000000000000 ) ;
#121 = PERSON_AND_ORGANIZATION ( #67, #116 ) ;
#122 = EDGE_CURVE ( 'NONE', #68, #21, #191, .T. ) ;
#123 = CARTESIAN_POINT ( 'NONE',  ( -2.000000000000000000, 0.000000000000000000, 2.000000000000000000 ) ) ;
#124 = DIRECTION ( 'NONE',  ( 0.000000000000000000, 0.000000000000000000, 1.000000000000000000 ) ) ;
#125 = CARTESIAN_POINT ( 'NONE',  ( -2.000000000000000000, 0.000000000000000000, 2.000000000000000000 ) ) ;
#126 = DIRECTION ( 'NONE',  ( 1.000000000000000000, 0.000000000000000000, 0.000000000000000000 ) ) ;
#127 = DESIGN_CONTEXT ( 'detailed design', #29, 'design' ) ;
#128 = DIRECTION ( 'NONE',  ( -0.000000000000000000, -0.000000000000000000, -1.000000000000000000 ) ) ;
#129 =( LENGTH_UNIT ( ) NAMED_UNIT ( * ) SI_UNIT ( .MILLI., .METRE. ) );
#130 = AXIS2_PLACEMENT_3D ( 'NONE', #164, #236, #239 ) ;
#131 = PERSON_AND_ORGANIZATION ( #67, #116 ) ;
#132 = ORIENTED_EDGE ( 'NONE', *, *, #249, .T. ) ;
#133 = COORDINATED_UNIVERSAL_TIME_OFFSET ( 1, 0, .AHEAD. ) ;
#134 = COORDINATED_UNIVERSAL_TIME_OFFSET ( 1, 0, .AHEAD. ) ;
#135 = PERSON_AND_ORGANIZATION_ROLE ( 'design_owner' ) ;
#136 = CLOSED_SHELL ( 'NONE', ( #12, #179, #18, #41, #83, #245, #202 ) ) ;
#137 = CARTESIAN_POINT ( 'NONE',  ( 0.000000000000000000, 0.000000000000000000, 2.000000000000000000 ) ) ;
#138 = APPROVAL_STATUS ( 'not_yet_approved' ) ;
#139 = PRODUCT_DEFINITION_FORMATION_WITH_SPECIFIED_SOURCE ( 'LIBOVOLNÝ', '', #145, .NOT_KNOWN. ) ;
#140 = EDGE_CURVE ( 'NONE', #210, #21, #141, .T. ) ;
#141 = LINE ( 'NONE', #123, #180 ) ;
#142 = CARTESIAN_POINT ( 'NONE',  ( 0.000000000000000000, 0.000000000000000000, 100.0000000000000000 ) ) ;
#143 = CC_DESIGN_SECURITY_CLASSIFICATION ( #108, ( #139 ) ) ;
#144 = CARTESIAN_POINT ( 'NONE',  ( 2.000000000000000000, 2.449293598294706414E-16, 0.000000000000000000 ) ) ;
#145 = PRODUCT ( 'e09d', 'e09d', '', ( #173 ) ) ;
#146 = CARTESIAN_POINT ( 'NONE',  ( 0.000000000000000000, 0.000000000000000000, 100.0000000000000000 ) ) ;
#147 = DIRECTION ( 'NONE',  ( 1.000000000000000000, 0.000000000000000000, 0.000000000000000000 ) ) ;
#148 = AXIS2_PLACEMENT_3D ( 'NONE', #73, #93, #149 ) ;
#149 = DIRECTION ( 'NONE',  ( 1.000000000000000000, 0.000000000000000000, 0.000000000000000000 ) ) ;
#150 = ORIENTED_EDGE ( 'NONE', *, *, #214, .F. ) ;
#151 = EDGE_LOOP ( 'NONE', ( #156, #23 ) ) ;
#152 = VECTOR ( 'NONE', #221, 1000.000000000000000 ) ;
#153 = PERSON_AND_ORGANIZATION_ROLE ( 'classification_officer' ) ;
#154 = AXIS2_PLACEMENT_3D ( 'NONE', #199, #14, #38 ) ;
#155 = EDGE_LOOP ( 'NONE', ( #230, #25, #117, #132 ) ) ;
#156 = ORIENTED_EDGE ( 'NONE', *, *, #165, .T. ) ;
#157 = AXIS2_PLACEMENT_3D ( 'NONE', #197, #42, #13 ) ;
#158 = CC_DESIGN_DATE_AND_TIME_ASSIGNMENT ( #24, #216, ( #108 ) ) ;
#159 = CC_DESIGN_PERSON_AND_ORGANIZATION_ASSIGNMENT ( #8, #135, ( #145 ) ) ;
#160 = DIRECTION ( 'NONE',  ( 1.000000000000000000, 0.000000000000000000, 0.000000000000000000 ) ) ;
#161 = CARTESIAN_POINT ( 'NONE',  ( 0.000000000000000000, 0.000000000000000000, 2.000000000000000000 ) ) ;
#162 = DIRECTION ( 'NONE',  ( -1.000000000000000000, 0.000000000000000000, 0.000000000000000000 ) ) ;
#163 = CC_DESIGN_PERSON_AND_ORGANIZATION_ASSIGNMENT ( #131, #208, ( #139 ) ) ;
#164 = CARTESIAN_POINT ( 'NONE',  ( 0.000000000000000000, 0.000000000000000000, 100.0000000000000000 ) ) ;
#165 = EDGE_CURVE ( 'NONE', #45, #2, #61, .T. ) ;
#166 = APPROVAL_ROLE ( '' ) ;
#167 = ORIENTED_EDGE ( 'NONE', *, *, #94, .T. ) ;
#168 = CALENDAR_DATE ( 2023, 13, 2 ) ;
#169 = PERSON_AND_ORGANIZATION_ROLE ( 'design_supplier' ) ;
#170 = ORIENTED_EDGE ( 'NONE', *, *, #222, .T. ) ;
#171 = AXIS2_PLACEMENT_3D ( 'NONE', #161, #17, #162 ) ;
#172 = EDGE_LOOP ( 'NONE', ( #49, #150 ) ) ;
#173 = MECHANICAL_CONTEXT ( 'NONE', #178, 'mechanical' ) ;
#174 = ORIENTED_EDGE ( 'NONE', *, *, #214, .T. ) ;
#175 = CC_DESIGN_DATE_AND_TIME_ASSIGNMENT ( #75, #43, ( #114 ) ) ;
#176 = VECTOR ( 'NONE', #128, 1000.000000000000000 ) ;
#177 = LOCAL_TIME ( 17, 55, 47.00000000000000000, #134 ) ;
#178 = APPLICATION_CONTEXT ( 'configuration controlled 3d designs of mechanical parts and assemblies' ) ;
#179 = ADVANCED_FACE ( 'NONE', ( #200 ), #37, .T. ) ;
#180 = VECTOR ( 'NONE', #55, 1000.000000000000000 ) ;
#181 = DIRECTION ( 'NONE',  ( -0.000000000000000000, -0.000000000000000000, -1.000000000000000000 ) ) ;
#182 = CARTESIAN_POINT ( 'NONE',  ( 0.000000000000000000, 0.000000000000000000, 2.000000000000000000 ) ) ;
#183 = CARTESIAN_POINT ( 'NONE',  ( -1.000000000000000000, 0.000000000000000000, 100.0000000000000000 ) ) ;
#184 =( GEOMETRIC_REPRESENTATION_CONTEXT ( 3 ) GLOBAL_UNCERTAINTY_ASSIGNED_CONTEXT ( ( #198 ) ) GLOBAL_UNIT_ASSIGNED_CONTEXT ( ( #129, #241, #192 ) ) REPRESENTATION_CONTEXT ( 'NONE', 'WORKASPACE' ) );
#185 = DIRECTION ( 'NONE',  ( 0.000000000000000000, 0.000000000000000000, 1.000000000000000000 ) ) ;
#186 = CC_DESIGN_PERSON_AND_ORGANIZATION_ASSIGNMENT ( #206, #226, ( #114 ) ) ;
#187 = FACE_BOUND ( 'NONE', #172, .T. ) ;
#188 = CYLINDRICAL_SURFACE ( 'NONE', #244, 1.000000000000000000 ) ;
#189 = DATE_AND_TIME ( #168, #204 ) ;
#190 = ORIENTED_EDGE ( 'NONE', *, *, #249, .F. ) ;
#191 = CIRCLE ( 'NONE', #34, 2.000000000000000000 ) ;
#192 =( NAMED_UNIT ( * ) SI_UNIT ( $, .STERADIAN. ) SOLID_ANGLE_UNIT ( ) );
#193 = APPROVAL ( #228, 'NEURÈENÝ' ) ;
#194 = CARTESIAN_POINT ( 'NONE',  ( 0.000000000000000000, 0.000000000000000000, 0.000000000000000000 ) ) ;
#195 = DIRECTION ( 'NONE',  ( 1.000000000000000000, 0.000000000000000000, 0.000000000000000000 ) ) ;
#196 = APPROVAL_DATE_TIME ( #78, #39 ) ;
#197 = CARTESIAN_POINT ( 'NONE',  ( 0.000000000000000000, 0.000000000000000000, 2.000000000000000000 ) ) ;
#198 = UNCERTAINTY_MEASURE_WITH_UNIT (LENGTH_MEASURE( 1.000000000000000082E-05 ), #129, 'distance_accuracy_value', 'NONE');
#199 = CARTESIAN_POINT ( 'NONE',  ( 0.000000000000000000, 0.000000000000000000, 2.000000000000000000 ) ) ;
#200 = FACE_OUTER_BOUND ( 'NONE', #6, .T. ) ;
#201 = CC_DESIGN_APPROVAL ( #39, ( #108 ) ) ;
#202 = ADVANCED_FACE ( 'NONE', ( #219 ), #237, .T. ) ;
#203 = LINE ( 'NONE', #183, #152 ) ;
#204 = LOCAL_TIME ( 17, 55, 47.00000000000000000, #64 ) ;
#205 = FACE_OUTER_BOUND ( 'NONE', #88, .T. ) ;
#206 = PERSON_AND_ORGANIZATION ( #67, #116 ) ;
#207 = CC_DESIGN_PERSON_AND_ORGANIZATION_ASSIGNMENT ( #89, #169, ( #139 ) ) ;
#208 = PERSON_AND_ORGANIZATION_ROLE ( 'creator' ) ;
#209 = AXIS2_PLACEMENT_3D ( 'NONE', #182, #81, #104 ) ;
#210 = VERTEX_POINT ( 'NONE', #125 ) ;
#211 = CALENDAR_DATE ( 2023, 13, 2 ) ;
#212 = VERTEX_POINT ( 'NONE', #36 ) ;
#213 = DIRECTION ( 'NONE',  ( -1.000000000000000000, 0.000000000000000000, 0.000000000000000000 ) ) ;
#214 = EDGE_CURVE ( 'NONE', #65, #212, #1, .T. ) ;
#215 = CARTESIAN_POINT ( 'NONE',  ( 1.000000000000000000, 1.224646799147353207E-16, 100.0000000000000000 ) ) ;
#216 = DATE_TIME_ROLE ( 'classification_date' ) ;
#217 = VECTOR ( 'NONE', #181, 1000.000000000000000 ) ;
#218 = AXIS2_PLACEMENT_3D ( 'NONE', #254, #84, #147 ) ;
#219 = FACE_OUTER_BOUND ( 'NONE', #151, .T. ) ;
#220 = CYLINDRICAL_SURFACE ( 'NONE', #157, 2.000000000000000000 ) ;
#221 = DIRECTION ( 'NONE',  ( -0.000000000000000000, -0.000000000000000000, -1.000000000000000000 ) ) ;
#222 = EDGE_CURVE ( 'NONE', #210, #227, #40, .T. ) ;
#223 = DIRECTION ( 'NONE',  ( 0.000000000000000000, 0.000000000000000000, 1.000000000000000000 ) ) ;
#224 = AXIS2_PLACEMENT_3D ( 'NONE', #142, #185, #35 ) ;
#225 = DIRECTION ( 'NONE',  ( 1.000000000000000000, 0.000000000000000000, -0.000000000000000000 ) ) ;
#226 = PERSON_AND_ORGANIZATION_ROLE ( 'creator' ) ;
#227 = VERTEX_POINT ( 'NONE', #238 ) ;
#228 = APPROVAL_STATUS ( 'not_yet_approved' ) ;
#229 = APPROVAL_STATUS ( 'not_yet_approved' ) ;
#230 = ORIENTED_EDGE ( 'NONE', *, *, #33, .F. ) ;
#231 = APPROVAL ( #229, 'NEURÈENÝ' ) ;
#232 = PERSON_AND_ORGANIZATION ( #67, #116 ) ;
#233 = CYLINDRICAL_SURFACE ( 'NONE', #27, 1.000000000000000000 ) ;
#234 = AXIS2_PLACEMENT_3D ( 'NONE', #146, #223, #126 ) ;
#235 = EDGE_CURVE ( 'NONE', #227, #210, #52, .T. ) ;
#236 = DIRECTION ( 'NONE',  ( 0.000000000000000000, 0.000000000000000000, 1.000000000000000000 ) ) ;
#237 = PLANE ( 'NONE',  #224 ) ;
#238 = CARTESIAN_POINT ( 'NONE',  ( 2.000000000000000000, 2.449293598294706414E-16, 2.000000000000000000 ) ) ;
#239 = DIRECTION ( 'NONE',  ( 1.000000000000000000, 0.000000000000000000, 0.000000000000000000 ) ) ;
#240 = FACE_OUTER_BOUND ( 'NONE', #106, .T. ) ;
#241 =( NAMED_UNIT ( * ) PLANE_ANGLE_UNIT ( ) SI_UNIT ( $, .RADIAN. ) );
#242 = SECURITY_CLASSIFICATION_LEVEL ( 'unclassified' ) ;
#243 = ORIENTED_EDGE ( 'NONE', *, *, #122, .F. ) ;
#244 = AXIS2_PLACEMENT_3D ( 'NONE', #111, #107, #213 ) ;
#245 = ADVANCED_FACE ( 'NONE', ( #205 ), #188, .T. ) ;
#246 = DATE_AND_TIME ( #20, #103 ) ;
#247 = FACE_OUTER_BOUND ( 'NONE', #96, .T. ) ;
#248 = PRODUCT_RELATED_PRODUCT_CATEGORY ( 'detail', '', ( #145 ) ) ;
#249 = EDGE_CURVE ( 'NONE', #21, #68, #98, .T. ) ;
#250 = CARTESIAN_POINT ( 'NONE',  ( -2.000000000000000000, 0.000000000000000000, 0.000000000000000000 ) ) ;
#251 = LINE ( 'NONE', #105, #176 ) ;
#252 = LOCAL_TIME ( 17, 55, 47.00000000000000000, #31 ) ;
#253 = DIRECTION ( 'NONE',  ( 0.000000000000000000, 0.000000000000000000, 1.000000000000000000 ) ) ;
#254 = CARTESIAN_POINT ( 'NONE',  ( 0.000000000000000000, 0.000000000000000000, 2.000000000000000000 ) ) ;
#255 = CARTESIAN_POINT ( 'NONE',  ( 1.000000000000000000, 1.224646799147353207E-16, 2.000000000000000000 ) ) ;
ENDSEC;
END-ISO-10303-21;
