ISO-10303-21;
HEADER;
FILE_DESCRIPTION (( 'STEP AP203' ),
    '1' );
FILE_NAME ('05b9.STEP',
    '2022-07-07T17:26:29',
    ( '' ),
    ( '' ),
    'SwSTEP 2.0',
    'SolidWorks 2019',
    '' );
FILE_SCHEMA (( 'CONFIG_CONTROL_DESIGN' ));
ENDSEC;

DATA;
#1 = APPROVAL_STATUS ( 'not_yet_approved' ) ;
#2 = PLANE ( 'NONE',  #47 ) ;
#3 = AXIS2_PLACEMENT_3D ( 'NONE', #64, #69, #144 ) ;
#4 = APPROVAL_DATE_TIME ( #178, #55 ) ;
#5 = DIRECTION ( 'NONE',  ( 0.000000000000000000, 0.000000000000000000, 1.000000000000000000 ) ) ;
#6 = FACE_OUTER_BOUND ( 'NONE', #243, .T. ) ;
#7 = PERSON_AND_ORGANIZATION ( #104, #25 ) ;
#8 = DIRECTION ( 'NONE',  ( -1.000000000000000000, 0.000000000000000000, 0.000000000000000000 ) ) ;
#9 = AXIS2_PLACEMENT_3D ( 'NONE', #142, #50, #90 ) ;
#10 = EDGE_CURVE ( 'NONE', #42, #109, #193, .T. ) ;
#11 = CC_DESIGN_APPROVAL ( #230, ( #167 ) ) ;
#12 = DIRECTION ( 'NONE',  ( 0.000000000000000000, 0.000000000000000000, 1.000000000000000000 ) ) ;
#13 = AXIS2_PLACEMENT_3D ( 'NONE', #95, #116, #41 ) ;
#14 = CC_DESIGN_APPROVAL ( #55, ( #28 ) ) ;
#15 = ADVANCED_FACE ( 'NONE', ( #32, #112 ), #2, .T. ) ;
#16 = DATE_AND_TIME ( #197, #222 ) ;
#17 = EDGE_LOOP ( 'NONE', ( #53, #177 ) ) ;
#18 = DATE_AND_TIME ( #138, #88 ) ;
#19 = ORIENTED_EDGE ( 'NONE', *, *, #206, .T. ) ;
#20 = LINE ( 'NONE', #176, #249 ) ;
#21 = AXIS2_PLACEMENT_3D ( 'NONE', #62, #5, #219 ) ;
#22 = CYLINDRICAL_SURFACE ( 'NONE', #72, 5.000000000000000000 ) ;
#23 = CARTESIAN_POINT ( 'NONE',  ( -5.000000000000000000, 0.000000000000000000, 5.000000000000000000 ) ) ;
#24 = DIRECTION ( 'NONE',  ( 0.000000000000000000, 0.000000000000000000, 1.000000000000000000 ) ) ;
#25 = ORGANIZATION ( 'NEURÈENÝ', 'NEURÈENÝ', '' ) ;
#26 = FACE_OUTER_BOUND ( 'NONE', #48, .T. ) ;
#27 = ORIENTED_EDGE ( 'NONE', *, *, #126, .T. ) ;
#28 = PRODUCT_DEFINITION ( 'NEZNÁMÝ', '', #167, #195 ) ;
#29 = DIRECTION ( 'NONE',  ( -1.000000000000000000, 0.000000000000000000, 0.000000000000000000 ) ) ;
#30 = CIRCLE ( 'NONE', #165, 8.000000000000000000 ) ;
#31 = PERSON_AND_ORGANIZATION ( #104, #25 ) ;
#32 = FACE_BOUND ( 'NONE', #17, .T. ) ;
#33 = CC_DESIGN_PERSON_AND_ORGANIZATION_ASSIGNMENT ( #160, #63, ( #167 ) ) ;
#34 = APPROVAL_ROLE ( '' ) ;
#35 = DIRECTION ( 'NONE',  ( -1.000000000000000000, 0.000000000000000000, 0.000000000000000000 ) ) ;
#36 = DIRECTION ( 'NONE',  ( 1.000000000000000000, 0.000000000000000000, 0.000000000000000000 ) ) ;
#37 = APPROVAL_PERSON_ORGANIZATION ( #215, #255, #34 ) ;
#38 = ADVANCED_FACE ( 'NONE', ( #156 ), #22, .T. ) ;
#39 = PERSON_AND_ORGANIZATION_ROLE ( 'classification_officer' ) ;
#40 = CARTESIAN_POINT ( 'NONE',  ( 0.000000000000000000, 0.000000000000000000, 5.000000000000000000 ) ) ;
#41 = DIRECTION ( 'NONE',  ( 1.000000000000000000, 0.000000000000000000, -0.000000000000000000 ) ) ;
#42 = VERTEX_POINT ( 'NONE', #183 ) ;
#43 = AXIS2_PLACEMENT_3D ( 'NONE', #87, #44, #29 ) ;
#44 = DIRECTION ( 'NONE',  ( -0.000000000000000000, -0.000000000000000000, -1.000000000000000000 ) ) ;
#45 = DIRECTION ( 'NONE',  ( 1.000000000000000000, 0.000000000000000000, 0.000000000000000000 ) ) ;
#46 = FACE_OUTER_BOUND ( 'NONE', #154, .T. ) ;
#47 = AXIS2_PLACEMENT_3D ( 'NONE', #76, #99, #204 ) ;
#48 = EDGE_LOOP ( 'NONE', ( #141, #175, #181, #66 ) ) ;
#49 = CYLINDRICAL_SURFACE ( 'NONE', #43, 8.000000000000000000 ) ;
#50 = DIRECTION ( 'NONE',  ( 0.000000000000000000, 0.000000000000000000, 1.000000000000000000 ) ) ;
#51 = AXIS2_PLACEMENT_3D ( 'NONE', #145, #12, #254 ) ;
#52 = CC_DESIGN_PERSON_AND_ORGANIZATION_ASSIGNMENT ( #7, #117, ( #167 ) ) ;
#53 = ORIENTED_EDGE ( 'NONE', *, *, #126, .F. ) ;
#54 = DATE_TIME_ROLE ( 'creation_date' ) ;
#55 = APPROVAL ( #1, 'NEURÈENÝ' ) ;
#56 = VERTEX_POINT ( 'NONE', #23 ) ;
#57 = SHAPE_DEFINITION_REPRESENTATION ( #216, #227 ) ;
#58 = VERTEX_POINT ( 'NONE', #179 ) ;
#59 = PLANE ( 'NONE',  #96 ) ;
#60 = ADVANCED_FACE ( 'NONE', ( #6 ), #81, .T. ) ;
#61 = COORDINATED_UNIVERSAL_TIME_OFFSET ( 1, 0, .AHEAD. ) ;
#62 = CARTESIAN_POINT ( 'NONE',  ( 0.000000000000000000, 0.000000000000000000, 0.000000000000000000 ) ) ;
#63 = PERSON_AND_ORGANIZATION_ROLE ( 'design_supplier' ) ;
#64 = CARTESIAN_POINT ( 'NONE',  ( 0.000000000000000000, 0.000000000000000000, 5.000000000000000000 ) ) ;
#65 = EDGE_LOOP ( 'NONE', ( #248, #166 ) ) ;
#66 = ORIENTED_EDGE ( 'NONE', *, *, #189, .F. ) ;
#67 = PRODUCT_RELATED_PRODUCT_CATEGORY ( 'detail', '', ( #131 ) ) ;
#68 = CARTESIAN_POINT ( 'NONE',  ( 0.000000000000000000, 0.000000000000000000, 0.000000000000000000 ) ) ;
#69 = DIRECTION ( 'NONE',  ( 0.000000000000000000, 0.000000000000000000, 1.000000000000000000 ) ) ;
#70 = DIRECTION ( 'NONE',  ( -0.000000000000000000, -0.000000000000000000, -1.000000000000000000 ) ) ;
#71 = ADVANCED_FACE ( 'NONE', ( #162 ), #59, .F. ) ;
#72 = AXIS2_PLACEMENT_3D ( 'NONE', #218, #198, #35 ) ;
#73 = EDGE_CURVE ( 'NONE', #186, #187, #20, .T. ) ;
#74 = VERTEX_POINT ( 'NONE', #97 ) ;
#75 = DATE_AND_TIME ( #94, #77 ) ;
#76 = CARTESIAN_POINT ( 'NONE',  ( 0.000000000000000000, 0.000000000000000000, 5.000000000000000000 ) ) ;
#77 = LOCAL_TIME ( 19, 26, 29.00000000000000000, #61 ) ;
#78 = PERSON_AND_ORGANIZATION ( #104, #25 ) ;
#79 = CC_DESIGN_DATE_AND_TIME_ASSIGNMENT ( #75, #54, ( #28 ) ) ;
#80 = CARTESIAN_POINT ( 'NONE',  ( 0.000000000000000000, 0.000000000000000000, 505.0000000000000000 ) ) ;
#81 = PLANE ( 'NONE',  #13 ) ;
#82 = APPROVAL_DATE_TIME ( #18, #230 ) ;
#83 = LINE ( 'NONE', #225, #220 ) ;
#84 = APPLICATION_CONTEXT ( 'configuration controlled 3d designs of mechanical parts and assemblies' ) ;
#85 = ORIENTED_EDGE ( 'NONE', *, *, #73, .T. ) ;
#86 = CIRCLE ( 'NONE', #115, 5.000000000000000000 ) ;
#87 = CARTESIAN_POINT ( 'NONE',  ( 0.000000000000000000, 0.000000000000000000, 5.000000000000000000 ) ) ;
#88 = LOCAL_TIME ( 19, 26, 29.00000000000000000, #152 ) ;
#89 = EDGE_CURVE ( 'NONE', #187, #58, #127, .T. ) ;
#90 = DIRECTION ( 'NONE',  ( 1.000000000000000000, 0.000000000000000000, 0.000000000000000000 ) ) ;
#91 =( NAMED_UNIT ( * ) PLANE_ANGLE_UNIT ( ) SI_UNIT ( $, .RADIAN. ) );
#92 = EDGE_CURVE ( 'NONE', #109, #42, #86, .T. ) ;
#93 = VECTOR ( 'NONE', #70, 1000.000000000000000 ) ;
#94 = CALENDAR_DATE ( 2022, 7, 7 ) ;
#95 = CARTESIAN_POINT ( 'NONE',  ( 0.000000000000000000, 0.000000000000000000, 505.0000000000000000 ) ) ;
#96 = AXIS2_PLACEMENT_3D ( 'NONE', #101, #201, #240 ) ;
#97 = CARTESIAN_POINT ( 'NONE',  ( 5.000000000000000000, 6.123233995736766282E-16, 5.000000000000000000 ) ) ;
#98 = CC_DESIGN_PERSON_AND_ORGANIZATION_ASSIGNMENT ( #132, #202, ( #131 ) ) ;
#99 = DIRECTION ( 'NONE',  ( 0.000000000000000000, 0.000000000000000000, 1.000000000000000000 ) ) ;
#100 = APPROVAL_ROLE ( '' ) ;
#101 = CARTESIAN_POINT ( 'NONE',  ( 0.000000000000000000, 0.000000000000000000, 0.000000000000000000 ) ) ;
#102 = ADVANCED_FACE ( 'NONE', ( #139 ), #224, .T. ) ;
#103 = ORIENTED_EDGE ( 'NONE', *, *, #106, .F. ) ;
#104 = PERSON ( 'NEURÈENÝ', 'NEURÈENÝ', 'NEURÈENÝ', ('NEURÈENÝ'), ('NEURÈENÝ'), ('NEURÈENÝ') ) ;
#105 = DIRECTION ( 'NONE',  ( -1.000000000000000000, 0.000000000000000000, 0.000000000000000000 ) ) ;
#106 = EDGE_CURVE ( 'NONE', #191, #58, #83, .T. ) ;
#107 = CARTESIAN_POINT ( 'NONE',  ( 5.000000000000000000, 6.123233995736766282E-16, 505.0000000000000000 ) ) ;
#108 = DIRECTION ( 'NONE',  ( -0.000000000000000000, -0.000000000000000000, -1.000000000000000000 ) ) ;
#109 = VERTEX_POINT ( 'NONE', #247 ) ;
#110 = CC_DESIGN_DATE_AND_TIME_ASSIGNMENT ( #180, #140, ( #151 ) ) ;
#111 = CALENDAR_DATE ( 2022, 7, 7 ) ;
#112 = FACE_OUTER_BOUND ( 'NONE', #203, .T. ) ;
#113 = ORIENTED_EDGE ( 'NONE', *, *, #150, .T. ) ;
#114 = ORIENTED_EDGE ( 'NONE', *, *, #10, .F. ) ;
#115 = AXIS2_PLACEMENT_3D ( 'NONE', #80, #137, #36 ) ;
#116 = DIRECTION ( 'NONE',  ( 0.000000000000000000, 0.000000000000000000, 1.000000000000000000 ) ) ;
#117 = PERSON_AND_ORGANIZATION_ROLE ( 'creator' ) ;
#118 = ORIENTED_EDGE ( 'NONE', *, *, #211, .F. ) ;
#119 = CARTESIAN_POINT ( 'NONE',  ( 0.000000000000000000, 0.000000000000000000, 505.0000000000000000 ) ) ;
#120 = CLOSED_SHELL ( 'NONE', ( #244, #102, #134, #15, #71, #38, #60 ) ) ;
#121 =( GEOMETRIC_REPRESENTATION_CONTEXT ( 3 ) GLOBAL_UNCERTAINTY_ASSIGNED_CONTEXT ( ( #135 ) ) GLOBAL_UNIT_ASSIGNED_CONTEXT ( ( #146, #91, #250 ) ) REPRESENTATION_CONTEXT ( 'NONE', 'WORKASPACE' ) );
#122 = DIRECTION ( 'NONE',  ( -0.000000000000000000, -0.000000000000000000, -1.000000000000000000 ) ) ;
#123 = CARTESIAN_POINT ( 'NONE',  ( 0.000000000000000000, 0.000000000000000000, 505.0000000000000000 ) ) ;
#124 = EDGE_LOOP ( 'NONE', ( #118, #235, #113, #161 ) ) ;
#125 = DIRECTION ( 'NONE',  ( 1.000000000000000000, 0.000000000000000000, 0.000000000000000000 ) ) ;
#126 = EDGE_CURVE ( 'NONE', #56, #74, #128, .T. ) ;
#127 = CIRCLE ( 'NONE', #21, 8.000000000000000000 ) ;
#128 = CIRCLE ( 'NONE', #3, 5.000000000000000000 ) ;
#129 = ORIENTED_EDGE ( 'NONE', *, *, #92, .T. ) ;
#130 = PERSON_AND_ORGANIZATION ( #104, #25 ) ;
#131 = PRODUCT ( '05b9', '05b9', '', ( #208 ) ) ;
#132 = PERSON_AND_ORGANIZATION ( #104, #25 ) ;
#133 = DIRECTION ( 'NONE',  ( 1.000000000000000000, 0.000000000000000000, 0.000000000000000000 ) ) ;
#134 = ADVANCED_FACE ( 'NONE', ( #46 ), #49, .T. ) ;
#135 = UNCERTAINTY_MEASURE_WITH_UNIT (LENGTH_MEASURE( 1.000000000000000082E-05 ), #146, 'distance_accuracy_value', 'NONE');
#136 = ORIENTED_EDGE ( 'NONE', *, *, #206, .F. ) ;
#137 = DIRECTION ( 'NONE',  ( 0.000000000000000000, 0.000000000000000000, 1.000000000000000000 ) ) ;
#138 = CALENDAR_DATE ( 2022, 7, 7 ) ;
#139 = FACE_OUTER_BOUND ( 'NONE', #124, .T. ) ;
#140 = DATE_TIME_ROLE ( 'classification_date' ) ;
#141 = ORIENTED_EDGE ( 'NONE', *, *, #92, .F. ) ;
#142 = CARTESIAN_POINT ( 'NONE',  ( 0.000000000000000000, 0.000000000000000000, 5.000000000000000000 ) ) ;
#143 = EDGE_CURVE ( 'NONE', #109, #74, #233, .T. ) ;
#144 = DIRECTION ( 'NONE',  ( 1.000000000000000000, 0.000000000000000000, 0.000000000000000000 ) ) ;
#145 = CARTESIAN_POINT ( 'NONE',  ( 0.000000000000000000, 0.000000000000000000, 0.000000000000000000 ) ) ;
#146 =( LENGTH_UNIT ( ) NAMED_UNIT ( * ) SI_UNIT ( .MILLI., .METRE. ) );
#147 = AXIS2_PLACEMENT_3D ( 'NONE', #123, #122, #105 ) ;
#148 = EDGE_LOOP ( 'NONE', ( #200, #114, #159, #27 ) ) ;
#149 = DIRECTION ( 'NONE',  ( 0.000000000000000000, 0.000000000000000000, 1.000000000000000000 ) ) ;
#150 = EDGE_CURVE ( 'NONE', #58, #187, #209, .T. ) ;
#151 = SECURITY_CLASSIFICATION ( '', '', #221 ) ;
#152 = COORDINATED_UNIVERSAL_TIME_OFFSET ( 1, 0, .AHEAD. ) ;
#153 = COORDINATED_UNIVERSAL_TIME_OFFSET ( 1, 0, .AHEAD. ) ;
#154 = EDGE_LOOP ( 'NONE', ( #103, #136, #85, #237 ) ) ;
#155 = APPROVAL_PERSON_ORGANIZATION ( #31, #230, #217 ) ;
#156 = FACE_OUTER_BOUND ( 'NONE', #148, .T. ) ;
#157 = CALENDAR_DATE ( 2022, 7, 7 ) ;
#158 = ORIENTED_EDGE ( 'NONE', *, *, #10, .T. ) ;
#159 = ORIENTED_EDGE ( 'NONE', *, *, #189, .T. ) ;
#160 = PERSON_AND_ORGANIZATION ( #104, #25 ) ;
#161 = ORIENTED_EDGE ( 'NONE', *, *, #73, .F. ) ;
#162 = FACE_OUTER_BOUND ( 'NONE', #65, .T. ) ;
#163 = COORDINATED_UNIVERSAL_TIME_OFFSET ( 1, 0, .AHEAD. ) ;
#164 = DIRECTION ( 'NONE',  ( -0.000000000000000000, -0.000000000000000000, -1.000000000000000000 ) ) ;
#165 = AXIS2_PLACEMENT_3D ( 'NONE', #168, #232, #125 ) ;
#166 = ORIENTED_EDGE ( 'NONE', *, *, #150, .F. ) ;
#167 = PRODUCT_DEFINITION_FORMATION_WITH_SPECIFIED_SOURCE ( 'LIBOVOLNÝ', '', #131, .NOT_KNOWN. ) ;
#168 = CARTESIAN_POINT ( 'NONE',  ( 0.000000000000000000, 0.000000000000000000, 5.000000000000000000 ) ) ;
#169 = CARTESIAN_POINT ( 'NONE',  ( -8.000000000000000000, 0.000000000000000000, 0.000000000000000000 ) ) ;
#170 = APPROVAL_PERSON_ORGANIZATION ( #130, #55, #100 ) ;
#171 = AXIS2_PLACEMENT_3D ( 'NONE', #40, #185, #8 ) ;
#172 = CC_DESIGN_APPROVAL ( #255, ( #151 ) ) ;
#173 = CC_DESIGN_PERSON_AND_ORGANIZATION_ASSIGNMENT ( #246, #39, ( #151 ) ) ;
#174 = PERSON_AND_ORGANIZATION_ROLE ( 'creator' ) ;
#175 = ORIENTED_EDGE ( 'NONE', *, *, #143, .T. ) ;
#176 = CARTESIAN_POINT ( 'NONE',  ( -8.000000000000000000, 0.000000000000000000, 5.000000000000000000 ) ) ;
#177 = ORIENTED_EDGE ( 'NONE', *, *, #228, .F. ) ;
#178 = DATE_AND_TIME ( #157, #238 ) ;
#179 = CARTESIAN_POINT ( 'NONE',  ( 8.000000000000000000, 9.797174393178825657E-16, 0.000000000000000000 ) ) ;
#180 = DATE_AND_TIME ( #111, #223 ) ;
#181 = ORIENTED_EDGE ( 'NONE', *, *, #228, .T. ) ;
#182 = CC_DESIGN_PERSON_AND_ORGANIZATION_ASSIGNMENT ( #78, #174, ( #28 ) ) ;
#183 = CARTESIAN_POINT ( 'NONE',  ( -5.000000000000000000, 0.000000000000000000, 505.0000000000000000 ) ) ;
#184 = COORDINATED_UNIVERSAL_TIME_OFFSET ( 1, 0, .AHEAD. ) ;
#185 = DIRECTION ( 'NONE',  ( -0.000000000000000000, -0.000000000000000000, -1.000000000000000000 ) ) ;
#186 = VERTEX_POINT ( 'NONE', #231 ) ;
#187 = VERTEX_POINT ( 'NONE', #169 ) ;
#188 = DIRECTION ( 'NONE',  ( 0.000000000000000000, 0.000000000000000000, 1.000000000000000000 ) ) ;
#189 = EDGE_CURVE ( 'NONE', #42, #56, #192, .T. ) ;
#190 = CARTESIAN_POINT ( 'NONE',  ( 8.000000000000000000, 9.797174393178825657E-16, 5.000000000000000000 ) ) ;
#191 = VERTEX_POINT ( 'NONE', #190 ) ;
#192 = LINE ( 'NONE', #207, #93 ) ;
#193 = CIRCLE ( 'NONE', #213, 5.000000000000000000 ) ;
#194 = CIRCLE ( 'NONE', #9, 8.000000000000000000 ) ;
#195 = DESIGN_CONTEXT ( 'detailed design', #84, 'design' ) ;
#196 = CC_DESIGN_SECURITY_CLASSIFICATION ( #151, ( #167 ) ) ;
#197 = CALENDAR_DATE ( 2022, 7, 7 ) ;
#198 = DIRECTION ( 'NONE',  ( -0.000000000000000000, -0.000000000000000000, -1.000000000000000000 ) ) ;
#199 = APPLICATION_PROTOCOL_DEFINITION ( 'international standard', 'config_control_design', 1994, #84 ) ;
#200 = ORIENTED_EDGE ( 'NONE', *, *, #143, .F. ) ;
#201 = DIRECTION ( 'NONE',  ( 0.000000000000000000, 0.000000000000000000, 1.000000000000000000 ) ) ;
#202 = PERSON_AND_ORGANIZATION_ROLE ( 'design_owner' ) ;
#203 = EDGE_LOOP ( 'NONE', ( #19, #242 ) ) ;
#204 = DIRECTION ( 'NONE',  ( 1.000000000000000000, 0.000000000000000000, -0.000000000000000000 ) ) ;
#205 = AXIS2_PLACEMENT_3D ( 'NONE', #229, #188, #210 ) ;
#206 = EDGE_CURVE ( 'NONE', #186, #191, #30, .T. ) ;
#207 = CARTESIAN_POINT ( 'NONE',  ( -5.000000000000000000, 0.000000000000000000, 505.0000000000000000 ) ) ;
#208 = MECHANICAL_CONTEXT ( 'NONE', #251, 'mechanical' ) ;
#209 = CIRCLE ( 'NONE', #51, 8.000000000000000000 ) ;
#210 = DIRECTION ( 'NONE',  ( 1.000000000000000000, 0.000000000000000000, 0.000000000000000000 ) ) ;
#211 = EDGE_CURVE ( 'NONE', #191, #186, #194, .T. ) ;
#212 = VECTOR ( 'NONE', #108, 1000.000000000000000 ) ;
#213 = AXIS2_PLACEMENT_3D ( 'NONE', #119, #24, #133 ) ;
#214 = AXIS2_PLACEMENT_3D ( 'NONE', #68, #149, #45 ) ;
#215 = PERSON_AND_ORGANIZATION ( #104, #25 ) ;
#216 = PRODUCT_DEFINITION_SHAPE ( 'NONE', 'NONE',  #28 ) ;
#217 = APPROVAL_ROLE ( '' ) ;
#218 = CARTESIAN_POINT ( 'NONE',  ( 0.000000000000000000, 0.000000000000000000, 505.0000000000000000 ) ) ;
#219 = DIRECTION ( 'NONE',  ( 1.000000000000000000, 0.000000000000000000, 0.000000000000000000 ) ) ;
#220 = VECTOR ( 'NONE', #164, 1000.000000000000000 ) ;
#221 = SECURITY_CLASSIFICATION_LEVEL ( 'unclassified' ) ;
#222 = LOCAL_TIME ( 19, 26, 29.00000000000000000, #153 ) ;
#223 = LOCAL_TIME ( 19, 26, 29.00000000000000000, #184 ) ;
#224 = CYLINDRICAL_SURFACE ( 'NONE', #171, 8.000000000000000000 ) ;
#225 = CARTESIAN_POINT ( 'NONE',  ( 8.000000000000000000, 9.797174393178825657E-16, 5.000000000000000000 ) ) ;
#226 = MANIFOLD_SOLID_BREP ( 'Pøidat vysunutím3', #120 ) ;
#227 = ADVANCED_BREP_SHAPE_REPRESENTATION ( '05b9', ( #226, #214 ), #121 ) ;
#228 = EDGE_CURVE ( 'NONE', #74, #56, #253, .T. ) ;
#229 = CARTESIAN_POINT ( 'NONE',  ( 0.000000000000000000, 0.000000000000000000, 5.000000000000000000 ) ) ;
#230 = APPROVAL ( #241, 'NEURÈENÝ' ) ;
#231 = CARTESIAN_POINT ( 'NONE',  ( -8.000000000000000000, 0.000000000000000000, 5.000000000000000000 ) ) ;
#232 = DIRECTION ( 'NONE',  ( 0.000000000000000000, 0.000000000000000000, 1.000000000000000000 ) ) ;
#233 = LINE ( 'NONE', #107, #212 ) ;
#234 = APPLICATION_PROTOCOL_DEFINITION ( 'international standard', 'config_control_design', 1994, #251 ) ;
#235 = ORIENTED_EDGE ( 'NONE', *, *, #106, .T. ) ;
#236 = APPROVAL_STATUS ( 'not_yet_approved' ) ;
#237 = ORIENTED_EDGE ( 'NONE', *, *, #89, .T. ) ;
#238 = LOCAL_TIME ( 19, 26, 29.00000000000000000, #163 ) ;
#239 = APPROVAL_DATE_TIME ( #16, #255 ) ;
#240 = DIRECTION ( 'NONE',  ( 1.000000000000000000, 0.000000000000000000, -0.000000000000000000 ) ) ;
#241 = APPROVAL_STATUS ( 'not_yet_approved' ) ;
#242 = ORIENTED_EDGE ( 'NONE', *, *, #211, .T. ) ;
#243 = EDGE_LOOP ( 'NONE', ( #158, #129 ) ) ;
#244 = ADVANCED_FACE ( 'NONE', ( #26 ), #252, .T. ) ;
#245 = DIRECTION ( 'NONE',  ( -0.000000000000000000, -0.000000000000000000, -1.000000000000000000 ) ) ;
#246 = PERSON_AND_ORGANIZATION ( #104, #25 ) ;
#247 = CARTESIAN_POINT ( 'NONE',  ( 5.000000000000000000, 6.123233995736766282E-16, 505.0000000000000000 ) ) ;
#248 = ORIENTED_EDGE ( 'NONE', *, *, #89, .F. ) ;
#249 = VECTOR ( 'NONE', #245, 1000.000000000000000 ) ;
#250 =( NAMED_UNIT ( * ) SI_UNIT ( $, .STERADIAN. ) SOLID_ANGLE_UNIT ( ) );
#251 = APPLICATION_CONTEXT ( 'configuration controlled 3d designs of mechanical parts and assemblies' ) ;
#252 = CYLINDRICAL_SURFACE ( 'NONE', #147, 5.000000000000000000 ) ;
#253 = CIRCLE ( 'NONE', #205, 5.000000000000000000 ) ;
#254 = DIRECTION ( 'NONE',  ( 1.000000000000000000, 0.000000000000000000, 0.000000000000000000 ) ) ;
#255 = APPROVAL ( #236, 'NEURÈENÝ' ) ;
ENDSEC;
END-ISO-10303-21;
