ISO-10303-21;
HEADER;
FILE_DESCRIPTION (( 'STEP AP203' ),
    '1' );
FILE_NAME ('fc01.STEP',
    '2022-07-07T17:13:08',
    ( '' ),
    ( '' ),
    'SwSTEP 2.0',
    'SolidWorks 2019',
    '' );
FILE_SCHEMA (( 'CONFIG_CONTROL_DESIGN' ));
ENDSEC;

DATA;
#1 = CC_DESIGN_SECURITY_CLASSIFICATION ( #218, ( #159 ) ) ;
#2 = DIRECTION ( 'NONE',  ( 1.000000000000000000, 0.000000000000000000, 0.000000000000000000 ) ) ;
#3 = CARTESIAN_POINT ( 'NONE',  ( 11.00000000000000000, 1.347111479062088405E-15, 7.000000000000000000 ) ) ;
#4 = VERTEX_POINT ( 'NONE', #183 ) ;
#5 = DIRECTION ( 'NONE',  ( 1.000000000000000000, 0.000000000000000000, 0.000000000000000000 ) ) ;
#6 = CARTESIAN_POINT ( 'NONE',  ( 0.000000000000000000, 0.000000000000000000, 0.000000000000000000 ) ) ;
#7 = COORDINATED_UNIVERSAL_TIME_OFFSET ( 1, 0, .AHEAD. ) ;
#8 = DIRECTION ( 'NONE',  ( 1.000000000000000000, 0.000000000000000000, 0.000000000000000000 ) ) ;
#9 = FACE_OUTER_BOUND ( 'NONE', #84, .T. ) ;
#10 = PERSON_AND_ORGANIZATION_ROLE ( 'design_owner' ) ;
#11 = ORIENTED_EDGE ( 'NONE', *, *, #149, .T. ) ;
#12 = CARTESIAN_POINT ( 'NONE',  ( 0.000000000000000000, 0.000000000000000000, 0.000000000000000000 ) ) ;
#13 = PRODUCT ( 'fc01', 'fc01', '', ( #248 ) ) ;
#14 = PERSON_AND_ORGANIZATION ( #154, #208 ) ;
#15 = PERSON_AND_ORGANIZATION ( #154, #208 ) ;
#16 = AXIS2_PLACEMENT_3D ( 'NONE', #132, #178, #228 ) ;
#17 = CALENDAR_DATE ( 2022, 7, 7 ) ;
#18 = AXIS2_PLACEMENT_3D ( 'NONE', #109, #186, #160 ) ;
#19 = LOCAL_TIME ( 19, 13, 8.000000000000000000, #189 ) ;
#20 = APPROVAL_PERSON_ORGANIZATION ( #113, #193, #170 ) ;
#21 = EDGE_CURVE ( 'NONE', #224, #81, #82, .T. ) ;
#22 = DIRECTION ( 'NONE',  ( 1.000000000000000000, 0.000000000000000000, 0.000000000000000000 ) ) ;
#23 = AXIS2_PLACEMENT_3D ( 'NONE', #244, #66, #8 ) ;
#24 =( NAMED_UNIT ( * ) PLANE_ANGLE_UNIT ( ) SI_UNIT ( $, .RADIAN. ) );
#25 = CARTESIAN_POINT ( 'NONE',  ( 0.000000000000000000, 0.000000000000000000, 7.000000000000000000 ) ) ;
#26 = FACE_OUTER_BOUND ( 'NONE', #227, .T. ) ;
#27 = APPROVAL_DATE_TIME ( #95, #193 ) ;
#28 = CC_DESIGN_PERSON_AND_ORGANIZATION_ASSIGNMENT ( #92, #10, ( #13 ) ) ;
#29 = EDGE_LOOP ( 'NONE', ( #79, #11 ) ) ;
#30 = EDGE_LOOP ( 'NONE', ( #114, #101 ) ) ;
#31 = DIRECTION ( 'NONE',  ( 0.000000000000000000, 0.000000000000000000, 1.000000000000000000 ) ) ;
#32 = VERTEX_POINT ( 'NONE', #225 ) ;
#33 = DIRECTION ( 'NONE',  ( 0.000000000000000000, 0.000000000000000000, 1.000000000000000000 ) ) ;
#34 = DIRECTION ( 'NONE',  ( -0.000000000000000000, -0.000000000000000000, -1.000000000000000000 ) ) ;
#35 = CARTESIAN_POINT ( 'NONE',  ( 0.000000000000000000, 0.000000000000000000, 7.000000000000000000 ) ) ;
#36 = APPROVAL_STATUS ( 'not_yet_approved' ) ;
#37 = PERSON_AND_ORGANIZATION_ROLE ( 'creator' ) ;
#38 = ORIENTED_EDGE ( 'NONE', *, *, #149, .F. ) ;
#39 = CIRCLE ( 'NONE', #88, 7.000000000000000000 ) ;
#40 = CC_DESIGN_APPROVAL ( #193, ( #159 ) ) ;
#41 = APPLICATION_CONTEXT ( 'configuration controlled 3d designs of mechanical parts and assemblies' ) ;
#42 = EDGE_CURVE ( 'NONE', #145, #4, #104, .T. ) ;
#43 = CYLINDRICAL_SURFACE ( 'NONE', #58, 11.00000000000000000 ) ;
#44 = AXIS2_PLACEMENT_3D ( 'NONE', #105, #33, #2 ) ;
#45 = ORIENTED_EDGE ( 'NONE', *, *, #21, .F. ) ;
#46 = APPROVAL_PERSON_ORGANIZATION ( #131, #253, #188 ) ;
#47 = APPROVAL_STATUS ( 'not_yet_approved' ) ;
#48 = ORIENTED_EDGE ( 'NONE', *, *, #237, .T. ) ;
#49 = DIRECTION ( 'NONE',  ( 0.000000000000000000, 0.000000000000000000, 1.000000000000000000 ) ) ;
#50 = ORIENTED_EDGE ( 'NONE', *, *, #171, .F. ) ;
#51 = VERTEX_POINT ( 'NONE', #150 ) ;
#52 = DIRECTION ( 'NONE',  ( -0.000000000000000000, -0.000000000000000000, -1.000000000000000000 ) ) ;
#53 = ORIENTED_EDGE ( 'NONE', *, *, #231, .F. ) ;
#54 = ADVANCED_FACE ( 'NONE', ( #200, #130 ), #89, .T. ) ;
#55 = PERSON_AND_ORGANIZATION_ROLE ( 'creator' ) ;
#56 = ORIENTED_EDGE ( 'NONE', *, *, #119, .F. ) ;
#57 = LOCAL_TIME ( 19, 13, 8.000000000000000000, #7 ) ;
#58 = AXIS2_PLACEMENT_3D ( 'NONE', #67, #187, #61 ) ;
#59 = ORIENTED_EDGE ( 'NONE', *, *, #110, .T. ) ;
#60 = EDGE_LOOP ( 'NONE', ( #195, #50 ) ) ;
#61 = DIRECTION ( 'NONE',  ( -1.000000000000000000, 0.000000000000000000, 0.000000000000000000 ) ) ;
#62 = APPLICATION_CONTEXT ( 'configuration controlled 3d designs of mechanical parts and assemblies' ) ;
#63 = ORIENTED_EDGE ( 'NONE', *, *, #177, .F. ) ;
#64 = CARTESIAN_POINT ( 'NONE',  ( 0.000000000000000000, 0.000000000000000000, 0.000000000000000000 ) ) ;
#65 = CYLINDRICAL_SURFACE ( 'NONE', #73, 11.00000000000000000 ) ;
#66 = DIRECTION ( 'NONE',  ( 0.000000000000000000, 0.000000000000000000, 1.000000000000000000 ) ) ;
#67 = CARTESIAN_POINT ( 'NONE',  ( 0.000000000000000000, 0.000000000000000000, 7.000000000000000000 ) ) ;
#68 = CALENDAR_DATE ( 2022, 7, 7 ) ;
#69 = DIRECTION ( 'NONE',  ( 0.000000000000000000, 0.000000000000000000, 1.000000000000000000 ) ) ;
#70 = DIRECTION ( 'NONE',  ( 0.000000000000000000, 0.000000000000000000, 1.000000000000000000 ) ) ;
#71 = SECURITY_CLASSIFICATION_LEVEL ( 'unclassified' ) ;
#72 = CC_DESIGN_PERSON_AND_ORGANIZATION_ASSIGNMENT ( #14, #37, ( #96 ) ) ;
#73 = AXIS2_PLACEMENT_3D ( 'NONE', #83, #34, #164 ) ;
#74 = ORIENTED_EDGE ( 'NONE', *, *, #128, .F. ) ;
#75 = PERSON_AND_ORGANIZATION_ROLE ( 'design_supplier' ) ;
#76 = AXIS2_PLACEMENT_3D ( 'NONE', #12, #221, #22 ) ;
#77 = CC_DESIGN_PERSON_AND_ORGANIZATION_ASSIGNMENT ( #234, #75, ( #159 ) ) ;
#78 = AXIS2_PLACEMENT_3D ( 'NONE', #64, #49, #124 ) ;
#79 = ORIENTED_EDGE ( 'NONE', *, *, #119, .T. ) ;
#80 = PRODUCT_RELATED_PRODUCT_CATEGORY ( 'detail', '', ( #13 ) ) ;
#81 = VERTEX_POINT ( 'NONE', #126 ) ;
#82 = LINE ( 'NONE', #141, #212 ) ;
#83 = CARTESIAN_POINT ( 'NONE',  ( 0.000000000000000000, 0.000000000000000000, 7.000000000000000000 ) ) ;
#84 = EDGE_LOOP ( 'NONE', ( #38, #100, #247, #140 ) ) ;
#85 = DIRECTION ( 'NONE',  ( 1.000000000000000000, 0.000000000000000000, 0.000000000000000000 ) ) ;
#86 = DIRECTION ( 'NONE',  ( 1.000000000000000000, 0.000000000000000000, -0.000000000000000000 ) ) ;
#87 = DATE_AND_TIME ( #111, #57 ) ;
#88 = AXIS2_PLACEMENT_3D ( 'NONE', #25, #69, #5 ) ;
#89 = PLANE ( 'NONE',  #103 ) ;
#90 = CARTESIAN_POINT ( 'NONE',  ( 0.000000000000000000, 0.000000000000000000, 407.0000000000000000 ) ) ;
#91 = LOCAL_TIME ( 19, 13, 8.000000000000000000, #246 ) ;
#92 = PERSON_AND_ORGANIZATION ( #154, #208 ) ;
#93 = ORIENTED_EDGE ( 'NONE', *, *, #216, .F. ) ;
#94 = PLANE ( 'NONE',  #118 ) ;
#95 = DATE_AND_TIME ( #249, #91 ) ;
#96 = PRODUCT_DEFINITION ( 'NEZNÁMÝ', '', #159, #174 ) ;
#97 = COORDINATED_UNIVERSAL_TIME_OFFSET ( 1, 0, .AHEAD. ) ;
#98 = DATE_AND_TIME ( #68, #123 ) ;
#99 = CC_DESIGN_DATE_AND_TIME_ASSIGNMENT ( #98, #211, ( #218 ) ) ;
#100 = ORIENTED_EDGE ( 'NONE', *, *, #177, .T. ) ;
#101 = ORIENTED_EDGE ( 'NONE', *, *, #176, .T. ) ;
#102 = EDGE_LOOP ( 'NONE', ( #209, #192, #203, #45 ) ) ;
#103 = AXIS2_PLACEMENT_3D ( 'NONE', #35, #165, #181 ) ;
#104 = CIRCLE ( 'NONE', #78, 11.00000000000000000 ) ;
#105 = CARTESIAN_POINT ( 'NONE',  ( 0.000000000000000000, 0.000000000000000000, 7.000000000000000000 ) ) ;
#106 = CARTESIAN_POINT ( 'NONE',  ( 0.000000000000000000, 0.000000000000000000, 407.0000000000000000 ) ) ;
#107 = DIRECTION ( 'NONE',  ( -1.000000000000000000, 0.000000000000000000, 0.000000000000000000 ) ) ;
#108 = APPROVAL_ROLE ( '' ) ;
#109 = CARTESIAN_POINT ( 'NONE',  ( 0.000000000000000000, 0.000000000000000000, 407.0000000000000000 ) ) ;
#110 = EDGE_CURVE ( 'NONE', #81, #32, #39, .T. ) ;
#111 = CALENDAR_DATE ( 2022, 7, 7 ) ;
#112 = FACE_OUTER_BOUND ( 'NONE', #251, .T. ) ;
#113 = PERSON_AND_ORGANIZATION ( #154, #208 ) ;
#114 = ORIENTED_EDGE ( 'NONE', *, *, #231, .T. ) ;
#115 = CC_DESIGN_PERSON_AND_ORGANIZATION_ASSIGNMENT ( #230, #55, ( #159 ) ) ;
#116 = APPROVAL ( #223, 'NEURÈENÝ' ) ;
#117 = ADVANCED_FACE ( 'NONE', ( #112 ), #120, .T. ) ;
#118 = AXIS2_PLACEMENT_3D ( 'NONE', #6, #70, #86 ) ;
#119 = EDGE_CURVE ( 'NONE', #219, #162, #137, .T. ) ;
#120 = CYLINDRICAL_SURFACE ( 'NONE', #175, 7.000000000000000000 ) ;
#121 = DIRECTION ( 'NONE',  ( 0.000000000000000000, 0.000000000000000000, 1.000000000000000000 ) ) ;
#122 = CIRCLE ( 'NONE', #44, 7.000000000000000000 ) ;
#123 = LOCAL_TIME ( 19, 13, 8.000000000000000000, #97 ) ;
#124 = DIRECTION ( 'NONE',  ( 1.000000000000000000, 0.000000000000000000, 0.000000000000000000 ) ) ;
#125 = DIRECTION ( 'NONE',  ( 1.000000000000000000, 0.000000000000000000, -0.000000000000000000 ) ) ;
#126 = CARTESIAN_POINT ( 'NONE',  ( -7.000000000000000000, 0.000000000000000000, 7.000000000000000000 ) ) ;
#127 = SHAPE_DEFINITION_REPRESENTATION ( #205, #139 ) ;
#128 = EDGE_CURVE ( 'NONE', #4, #145, #198, .T. ) ;
#129 = ORIENTED_EDGE ( 'NONE', *, *, #128, .T. ) ;
#130 = FACE_OUTER_BOUND ( 'NONE', #29, .T. ) ;
#131 = PERSON_AND_ORGANIZATION ( #154, #208 ) ;
#132 = CARTESIAN_POINT ( 'NONE',  ( 0.000000000000000000, 0.000000000000000000, 407.0000000000000000 ) ) ;
#133 = LOCAL_TIME ( 19, 13, 8.000000000000000000, #143 ) ;
#134 = LINE ( 'NONE', #166, #191 ) ;
#135 = APPLICATION_PROTOCOL_DEFINITION ( 'international standard', 'config_control_design', 1994, #41 ) ;
#136 = AXIS2_PLACEMENT_3D ( 'NONE', #179, #31, #201 ) ;
#137 = CIRCLE ( 'NONE', #236, 11.00000000000000000 ) ;
#138 = CC_DESIGN_PERSON_AND_ORGANIZATION_ASSIGNMENT ( #15, #152, ( #218 ) ) ;
#139 = ADVANCED_BREP_SHAPE_REPRESENTATION ( 'fc01', ( #239, #136 ), #252 ) ;
#140 = ORIENTED_EDGE ( 'NONE', *, *, #237, .F. ) ;
#141 = CARTESIAN_POINT ( 'NONE',  ( -7.000000000000000000, 0.000000000000000000, 407.0000000000000000 ) ) ;
#142 = CARTESIAN_POINT ( 'NONE',  ( -11.00000000000000000, 0.000000000000000000, 7.000000000000000000 ) ) ;
#143 = COORDINATED_UNIVERSAL_TIME_OFFSET ( 1, 0, .AHEAD. ) ;
#144 = VECTOR ( 'NONE', #52, 1000.000000000000000 ) ;
#145 = VERTEX_POINT ( 'NONE', #151 ) ;
#146 = ORIENTED_EDGE ( 'NONE', *, *, #21, .T. ) ;
#147 = DIRECTION ( 'NONE',  ( 0.000000000000000000, 0.000000000000000000, 1.000000000000000000 ) ) ;
#148 =( NAMED_UNIT ( * ) SI_UNIT ( $, .STERADIAN. ) SOLID_ANGLE_UNIT ( ) );
#149 = EDGE_CURVE ( 'NONE', #162, #219, #207, .T. ) ;
#150 = CARTESIAN_POINT ( 'NONE',  ( 7.000000000000000000, 8.572527594031473190E-16, 407.0000000000000000 ) ) ;
#151 = CARTESIAN_POINT ( 'NONE',  ( 11.00000000000000000, 1.347111479062088405E-15, 0.000000000000000000 ) ) ;
#152 = PERSON_AND_ORGANIZATION_ROLE ( 'classification_officer' ) ;
#153 = UNCERTAINTY_MEASURE_WITH_UNIT (LENGTH_MEASURE( 1.000000000000000082E-05 ), #222, 'distance_accuracy_value', 'NONE');
#154 = PERSON ( 'NEURÈENÝ', 'NEURÈENÝ', 'NEURÈENÝ', ('NEURÈENÝ'), ('NEURÈENÝ'), ('NEURÈENÝ') ) ;
#155 = AXIS2_PLACEMENT_3D ( 'NONE', #90, #121, #125 ) ;
#156 = ADVANCED_FACE ( 'NONE', ( #232 ), #163, .T. ) ;
#157 = CC_DESIGN_DATE_AND_TIME_ASSIGNMENT ( #226, #167, ( #96 ) ) ;
#158 = VECTOR ( 'NONE', #220, 1000.000000000000000 ) ;
#159 = PRODUCT_DEFINITION_FORMATION_WITH_SPECIFIED_SOURCE ( 'LIBOVOLNÝ', '', #13, .NOT_KNOWN. ) ;
#160 = DIRECTION ( 'NONE',  ( 1.000000000000000000, 0.000000000000000000, 0.000000000000000000 ) ) ;
#161 = CARTESIAN_POINT ( 'NONE',  ( -7.000000000000000000, 0.000000000000000000, 407.0000000000000000 ) ) ;
#162 = VERTEX_POINT ( 'NONE', #242 ) ;
#163 = CYLINDRICAL_SURFACE ( 'NONE', #16, 7.000000000000000000 ) ;
#164 = DIRECTION ( 'NONE',  ( -1.000000000000000000, 0.000000000000000000, 0.000000000000000000 ) ) ;
#165 = DIRECTION ( 'NONE',  ( 0.000000000000000000, 0.000000000000000000, 1.000000000000000000 ) ) ;
#166 = CARTESIAN_POINT ( 'NONE',  ( 7.000000000000000000, 8.572527594031473190E-16, 407.0000000000000000 ) ) ;
#167 = DATE_TIME_ROLE ( 'creation_date' ) ;
#168 = DIRECTION ( 'NONE',  ( -0.000000000000000000, -0.000000000000000000, -1.000000000000000000 ) ) ;
#169 = DIRECTION ( 'NONE',  ( -0.000000000000000000, -0.000000000000000000, -1.000000000000000000 ) ) ;
#170 = APPROVAL_ROLE ( '' ) ;
#171 = EDGE_CURVE ( 'NONE', #32, #81, #122, .T. ) ;
#172 = DATE_AND_TIME ( #173, #19 ) ;
#173 = CALENDAR_DATE ( 2022, 7, 7 ) ;
#174 = DESIGN_CONTEXT ( 'detailed design', #41, 'design' ) ;
#175 = AXIS2_PLACEMENT_3D ( 'NONE', #204, #197, #107 ) ;
#176 = EDGE_CURVE ( 'NONE', #51, #224, #194, .T. ) ;
#177 = EDGE_CURVE ( 'NONE', #162, #145, #240, .T. ) ;
#178 = DIRECTION ( 'NONE',  ( -0.000000000000000000, -0.000000000000000000, -1.000000000000000000 ) ) ;
#179 = CARTESIAN_POINT ( 'NONE',  ( 0.000000000000000000, 0.000000000000000000, 0.000000000000000000 ) ) ;
#180 = ADVANCED_FACE ( 'NONE', ( #9 ), #65, .T. ) ;
#181 = DIRECTION ( 'NONE',  ( 1.000000000000000000, 0.000000000000000000, -0.000000000000000000 ) ) ;
#182 = CARTESIAN_POINT ( 'NONE',  ( -11.00000000000000000, 0.000000000000000000, 7.000000000000000000 ) ) ;
#183 = CARTESIAN_POINT ( 'NONE',  ( -11.00000000000000000, 0.000000000000000000, 0.000000000000000000 ) ) ;
#184 = FACE_OUTER_BOUND ( 'NONE', #254, .T. ) ;
#185 = APPROVAL_DATE_TIME ( #87, #116 ) ;
#186 = DIRECTION ( 'NONE',  ( 0.000000000000000000, 0.000000000000000000, 1.000000000000000000 ) ) ;
#187 = DIRECTION ( 'NONE',  ( -0.000000000000000000, -0.000000000000000000, -1.000000000000000000 ) ) ;
#188 = APPROVAL_ROLE ( '' ) ;
#189 = COORDINATED_UNIVERSAL_TIME_OFFSET ( 1, 0, .AHEAD. ) ;
#190 = ORIENTED_EDGE ( 'NONE', *, *, #42, .F. ) ;
#191 = VECTOR ( 'NONE', #169, 1000.000000000000000 ) ;
#192 = ORIENTED_EDGE ( 'NONE', *, *, #216, .T. ) ;
#193 = APPROVAL ( #47, 'NEURÈENÝ' ) ;
#194 = CIRCLE ( 'NONE', #18, 7.000000000000000000 ) ;
#195 = ORIENTED_EDGE ( 'NONE', *, *, #110, .F. ) ;
#196 = CC_DESIGN_APPROVAL ( #116, ( #96 ) ) ;
#197 = DIRECTION ( 'NONE',  ( -0.000000000000000000, -0.000000000000000000, -1.000000000000000000 ) ) ;
#198 = CIRCLE ( 'NONE', #76, 11.00000000000000000 ) ;
#199 = ADVANCED_FACE ( 'NONE', ( #26 ), #43, .T. ) ;
#200 = FACE_BOUND ( 'NONE', #60, .T. ) ;
#201 = DIRECTION ( 'NONE',  ( 1.000000000000000000, 0.000000000000000000, 0.000000000000000000 ) ) ;
#202 = PERSON_AND_ORGANIZATION ( #154, #208 ) ;
#203 = ORIENTED_EDGE ( 'NONE', *, *, #171, .T. ) ;
#204 = CARTESIAN_POINT ( 'NONE',  ( 0.000000000000000000, 0.000000000000000000, 407.0000000000000000 ) ) ;
#205 = PRODUCT_DEFINITION_SHAPE ( 'NONE', 'NONE',  #96 ) ;
#206 = CARTESIAN_POINT ( 'NONE',  ( 0.000000000000000000, 0.000000000000000000, 7.000000000000000000 ) ) ;
#207 = CIRCLE ( 'NONE', #23, 11.00000000000000000 ) ;
#208 = ORGANIZATION ( 'NEURÈENÝ', 'NEURÈENÝ', '' ) ;
#209 = ORIENTED_EDGE ( 'NONE', *, *, #176, .F. ) ;
#210 = DIRECTION ( 'NONE',  ( 0.000000000000000000, 0.000000000000000000, 1.000000000000000000 ) ) ;
#211 = DATE_TIME_ROLE ( 'classification_date' ) ;
#212 = VECTOR ( 'NONE', #168, 1000.000000000000000 ) ;
#213 = ADVANCED_FACE ( 'NONE', ( #184 ), #94, .F. ) ;
#214 = APPROVAL_PERSON_ORGANIZATION ( #202, #116, #108 ) ;
#215 = CC_DESIGN_APPROVAL ( #253, ( #218 ) ) ;
#216 = EDGE_CURVE ( 'NONE', #51, #32, #134, .T. ) ;
#217 = CLOSED_SHELL ( 'NONE', ( #156, #180, #199, #54, #213, #117, #235 ) ) ;
#218 = SECURITY_CLASSIFICATION ( '', '', #71 ) ;
#219 = VERTEX_POINT ( 'NONE', #182 ) ;
#220 = DIRECTION ( 'NONE',  ( -0.000000000000000000, -0.000000000000000000, -1.000000000000000000 ) ) ;
#221 = DIRECTION ( 'NONE',  ( 0.000000000000000000, 0.000000000000000000, 1.000000000000000000 ) ) ;
#222 =( LENGTH_UNIT ( ) NAMED_UNIT ( * ) SI_UNIT ( .MILLI., .METRE. ) );
#223 = APPROVAL_STATUS ( 'not_yet_approved' ) ;
#224 = VERTEX_POINT ( 'NONE', #161 ) ;
#225 = CARTESIAN_POINT ( 'NONE',  ( 7.000000000000000000, 8.572527594031473190E-16, 7.000000000000000000 ) ) ;
#226 = DATE_AND_TIME ( #17, #133 ) ;
#227 = EDGE_LOOP ( 'NONE', ( #63, #56, #48, #129 ) ) ;
#228 = DIRECTION ( 'NONE',  ( -1.000000000000000000, 0.000000000000000000, 0.000000000000000000 ) ) ;
#229 = PLANE ( 'NONE',  #155 ) ;
#230 = PERSON_AND_ORGANIZATION ( #154, #208 ) ;
#231 = EDGE_CURVE ( 'NONE', #224, #51, #255, .T. ) ;
#232 = FACE_OUTER_BOUND ( 'NONE', #102, .T. ) ;
#233 = FACE_OUTER_BOUND ( 'NONE', #30, .T. ) ;
#234 = PERSON_AND_ORGANIZATION ( #154, #208 ) ;
#235 = ADVANCED_FACE ( 'NONE', ( #233 ), #229, .T. ) ;
#236 = AXIS2_PLACEMENT_3D ( 'NONE', #206, #147, #85 ) ;
#237 = EDGE_CURVE ( 'NONE', #219, #4, #245, .T. ) ;
#238 = AXIS2_PLACEMENT_3D ( 'NONE', #106, #210, #243 ) ;
#239 = MANIFOLD_SOLID_BREP ( 'Pøidat vysunutím3', #217 ) ;
#240 = LINE ( 'NONE', #3, #158 ) ;
#241 = APPLICATION_PROTOCOL_DEFINITION ( 'international standard', 'config_control_design', 1994, #62 ) ;
#242 = CARTESIAN_POINT ( 'NONE',  ( 11.00000000000000000, 1.347111479062088405E-15, 7.000000000000000000 ) ) ;
#243 = DIRECTION ( 'NONE',  ( 1.000000000000000000, 0.000000000000000000, 0.000000000000000000 ) ) ;
#244 = CARTESIAN_POINT ( 'NONE',  ( 0.000000000000000000, 0.000000000000000000, 7.000000000000000000 ) ) ;
#245 = LINE ( 'NONE', #142, #144 ) ;
#246 = COORDINATED_UNIVERSAL_TIME_OFFSET ( 1, 0, .AHEAD. ) ;
#247 = ORIENTED_EDGE ( 'NONE', *, *, #42, .T. ) ;
#248 = MECHANICAL_CONTEXT ( 'NONE', #62, 'mechanical' ) ;
#249 = CALENDAR_DATE ( 2022, 7, 7 ) ;
#250 = APPROVAL_DATE_TIME ( #172, #253 ) ;
#251 = EDGE_LOOP ( 'NONE', ( #93, #53, #146, #59 ) ) ;
#252 =( GEOMETRIC_REPRESENTATION_CONTEXT ( 3 ) GLOBAL_UNCERTAINTY_ASSIGNED_CONTEXT ( ( #153 ) ) GLOBAL_UNIT_ASSIGNED_CONTEXT ( ( #222, #24, #148 ) ) REPRESENTATION_CONTEXT ( 'NONE', 'WORKASPACE' ) );
#253 = APPROVAL ( #36, 'NEURÈENÝ' ) ;
#254 = EDGE_LOOP ( 'NONE', ( #74, #190 ) ) ;
#255 = CIRCLE ( 'NONE', #238, 7.000000000000000000 ) ;
ENDSEC;
END-ISO-10303-21;
