ISO-10303-21;
HEADER;
FILE_DESCRIPTION (( 'STEP AP203' ),
    '1' );
FILE_NAME ('bf08.STEP',
    '2022-07-07T17:50:06',
    ( '' ),
    ( '' ),
    'SwSTEP 2.0',
    'SolidWorks 2019',
    '' );
FILE_SCHEMA (( 'CONFIG_CONTROL_DESIGN' ));
ENDSEC;

DATA;
#1 = DIRECTION ( 'NONE',  ( -0.000000000000000000, -0.000000000000000000, -1.000000000000000000 ) ) ;
#2 = LINE ( 'NONE', #29, #86 ) ;
#3 = EDGE_CURVE ( 'NONE', #186, #110, #181, .T. ) ;
#4 = DIRECTION ( 'NONE',  ( 0.000000000000000000, 0.000000000000000000, 1.000000000000000000 ) ) ;
#5 = CARTESIAN_POINT ( 'NONE',  ( 0.000000000000000000, 0.000000000000000000, 3.000000000000000000 ) ) ;
#6 = AXIS2_PLACEMENT_3D ( 'NONE', #146, #30, #108 ) ;
#7 = ORIENTED_EDGE ( 'NONE', *, *, #244, .T. ) ;
#8 = EDGE_LOOP ( 'NONE', ( #173, #249, #150, #166 ) ) ;
#9 = APPROVAL ( #16, 'NEURÈENÝ' ) ;
#10 = CARTESIAN_POINT ( 'NONE',  ( 0.000000000000000000, 0.000000000000000000, 3.000000000000000000 ) ) ;
#11 = CARTESIAN_POINT ( 'NONE',  ( 0.000000000000000000, 0.000000000000000000, 3.000000000000000000 ) ) ;
#12 = ORIENTED_EDGE ( 'NONE', *, *, #208, .T. ) ;
#13 = ORIENTED_EDGE ( 'NONE', *, *, #126, .F. ) ;
#14 = CC_DESIGN_APPROVAL ( #9, ( #107 ) ) ;
#15 = DATE_AND_TIME ( #194, #243 ) ;
#16 = APPROVAL_STATUS ( 'not_yet_approved' ) ;
#17 = CC_DESIGN_DATE_AND_TIME_ASSIGNMENT ( #15, #91, ( #210 ) ) ;
#18 = AXIS2_PLACEMENT_3D ( 'NONE', #159, #4, #80 ) ;
#19 = PERSON_AND_ORGANIZATION ( #99, #193 ) ;
#20 = EDGE_CURVE ( 'NONE', #190, #36, #118, .T. ) ;
#21 = AXIS2_PLACEMENT_3D ( 'NONE', #120, #45, #28 ) ;
#22 = DATE_AND_TIME ( #138, #199 ) ;
#23 = LOCAL_TIME ( 19, 50, 6.000000000000000000, #114 ) ;
#24 = CC_DESIGN_DATE_AND_TIME_ASSIGNMENT ( #40, #74, ( #189 ) ) ;
#25 = DIRECTION ( 'NONE',  ( 1.000000000000000000, 0.000000000000000000, -0.000000000000000000 ) ) ;
#26 = CARTESIAN_POINT ( 'NONE',  ( -2.100000000000000089, 0.000000000000000000, 253.0000000000000000 ) ) ;
#27 = COORDINATED_UNIVERSAL_TIME_OFFSET ( 1, 0, .AHEAD. ) ;
#28 = DIRECTION ( 'NONE',  ( -1.000000000000000000, 0.000000000000000000, 0.000000000000000000 ) ) ;
#29 = CARTESIAN_POINT ( 'NONE',  ( 4.000000000000000000, 4.898587196589412829E-16, 3.000000000000000000 ) ) ;
#30 = DIRECTION ( 'NONE',  ( 0.000000000000000000, 0.000000000000000000, 1.000000000000000000 ) ) ;
#31 = ADVANCED_FACE ( 'NONE', ( #130 ), #90, .T. ) ;
#32 = CC_DESIGN_SECURITY_CLASSIFICATION ( #210, ( #107 ) ) ;
#33 = DIRECTION ( 'NONE',  ( 0.000000000000000000, 0.000000000000000000, 1.000000000000000000 ) ) ;
#34 = CC_DESIGN_PERSON_AND_ORGANIZATION_ASSIGNMENT ( #133, #233, ( #189 ) ) ;
#35 = VERTEX_POINT ( 'NONE', #151 ) ;
#36 = VERTEX_POINT ( 'NONE', #148 ) ;
#37 = EDGE_CURVE ( 'NONE', #36, #190, #214, .T. ) ;
#38 = COORDINATED_UNIVERSAL_TIME_OFFSET ( 1, 0, .AHEAD. ) ;
#39 = CLOSED_SHELL ( 'NONE', ( #31, #105, #92, #147, #119, #57, #113 ) ) ;
#40 = DATE_AND_TIME ( #197, #124 ) ;
#41 = DIRECTION ( 'NONE',  ( 0.000000000000000000, 0.000000000000000000, 1.000000000000000000 ) ) ;
#42 = DIRECTION ( 'NONE',  ( 0.000000000000000000, 0.000000000000000000, 1.000000000000000000 ) ) ;
#43 = LINE ( 'NONE', #103, #162 ) ;
#44 = DIRECTION ( 'NONE',  ( 1.000000000000000000, 0.000000000000000000, -0.000000000000000000 ) ) ;
#45 = DIRECTION ( 'NONE',  ( -0.000000000000000000, -0.000000000000000000, -1.000000000000000000 ) ) ;
#46 = ORIENTED_EDGE ( 'NONE', *, *, #3, .T. ) ;
#47 = ORIENTED_EDGE ( 'NONE', *, *, #226, .T. ) ;
#48 = DIRECTION ( 'NONE',  ( -1.000000000000000000, 0.000000000000000000, 0.000000000000000000 ) ) ;
#49 = CIRCLE ( 'NONE', #196, 2.100000000000000089 ) ;
#50 = EDGE_LOOP ( 'NONE', ( #224, #109 ) ) ;
#51 = FACE_OUTER_BOUND ( 'NONE', #219, .T. ) ;
#52 = AXIS2_PLACEMENT_3D ( 'NONE', #11, #245, #230 ) ;
#53 = APPLICATION_PROTOCOL_DEFINITION ( 'international standard', 'config_control_design', 1994, #139 ) ;
#54 = PERSON_AND_ORGANIZATION ( #99, #193 ) ;
#55 = ORIENTED_EDGE ( 'NONE', *, *, #239, .F. ) ;
#56 = FACE_OUTER_BOUND ( 'NONE', #50, .T. ) ;
#57 = ADVANCED_FACE ( 'NONE', ( #51 ), #227, .T. ) ;
#58 = CARTESIAN_POINT ( 'NONE',  ( 0.000000000000000000, 0.000000000000000000, 0.000000000000000000 ) ) ;
#59 = CARTESIAN_POINT ( 'NONE',  ( 2.100000000000000089, 2.571758278209441957E-16, 253.0000000000000000 ) ) ;
#60 = FACE_BOUND ( 'NONE', #61, .T. ) ;
#61 = EDGE_LOOP ( 'NONE', ( #171, #212 ) ) ;
#62 = DIRECTION ( 'NONE',  ( -0.000000000000000000, -0.000000000000000000, -1.000000000000000000 ) ) ;
#63 = AXIS2_PLACEMENT_3D ( 'NONE', #67, #125, #104 ) ;
#64 = CC_DESIGN_PERSON_AND_ORGANIZATION_ASSIGNMENT ( #19, #136, ( #215 ) ) ;
#65 = EDGE_LOOP ( 'NONE', ( #46, #7 ) ) ;
#66 = MANIFOLD_SOLID_BREP ( 'Pøidat vysunutím3', #39 ) ;
#67 = CARTESIAN_POINT ( 'NONE',  ( 0.000000000000000000, 0.000000000000000000, 253.0000000000000000 ) ) ;
#68 = VERTEX_POINT ( 'NONE', #206 ) ;
#69 = CARTESIAN_POINT ( 'NONE',  ( 0.000000000000000000, 0.000000000000000000, 0.000000000000000000 ) ) ;
#70 = EDGE_CURVE ( 'NONE', #237, #68, #203, .T. ) ;
#71 = SECURITY_CLASSIFICATION_LEVEL ( 'unclassified' ) ;
#72 = AXIS2_PLACEMENT_3D ( 'NONE', #69, #41, #93 ) ;
#73 = DATE_AND_TIME ( #178, #175 ) ;
#74 = DATE_TIME_ROLE ( 'creation_date' ) ;
#75 = PLANE ( 'NONE',  #18 ) ;
#76 = PRODUCT_DEFINITION_SHAPE ( 'NONE', 'NONE',  #189 ) ;
#77 = CARTESIAN_POINT ( 'NONE',  ( -2.100000000000000089, 0.000000000000000000, 3.000000000000000000 ) ) ;
#78 = DIRECTION ( 'NONE',  ( -0.000000000000000000, -0.000000000000000000, -1.000000000000000000 ) ) ;
#79 = APPROVAL_ROLE ( '' ) ;
#80 = DIRECTION ( 'NONE',  ( 1.000000000000000000, 0.000000000000000000, -0.000000000000000000 ) ) ;
#81 = SHAPE_DEFINITION_REPRESENTATION ( #76, #160 ) ;
#82 = CARTESIAN_POINT ( 'NONE',  ( 0.000000000000000000, 0.000000000000000000, 253.0000000000000000 ) ) ;
#83 = CC_DESIGN_PERSON_AND_ORGANIZATION_ASSIGNMENT ( #198, #116, ( #107 ) ) ;
#84 = DIRECTION ( 'NONE',  ( -1.000000000000000000, 0.000000000000000000, 0.000000000000000000 ) ) ;
#85 = APPROVAL_PERSON_ORGANIZATION ( #232, #9, #213 ) ;
#86 = VECTOR ( 'NONE', #78, 1000.000000000000000 ) ;
#87 = APPLICATION_CONTEXT ( 'configuration controlled 3d designs of mechanical parts and assemblies' ) ;
#88 = CARTESIAN_POINT ( 'NONE',  ( 0.000000000000000000, 0.000000000000000000, 253.0000000000000000 ) ) ;
#89 = FACE_OUTER_BOUND ( 'NONE', #127, .T. ) ;
#90 = CYLINDRICAL_SURFACE ( 'NONE', #191, 2.100000000000000089 ) ;
#91 = DATE_TIME_ROLE ( 'classification_date' ) ;
#92 = ADVANCED_FACE ( 'NONE', ( #89 ), #248, .T. ) ;
#93 = DIRECTION ( 'NONE',  ( 1.000000000000000000, 0.000000000000000000, 0.000000000000000000 ) ) ;
#94 = COORDINATED_UNIVERSAL_TIME_OFFSET ( 1, 0, .AHEAD. ) ;
#95 = APPROVAL_DATE_TIME ( #22, #183 ) ;
#96 = DIRECTION ( 'NONE',  ( 0.000000000000000000, 0.000000000000000000, 1.000000000000000000 ) ) ;
#97 = UNCERTAINTY_MEASURE_WITH_UNIT (LENGTH_MEASURE( 1.000000000000000082E-05 ), #202, 'distance_accuracy_value', 'NONE');
#98 = CYLINDRICAL_SURFACE ( 'NONE', #21, 4.000000000000000000 ) ;
#99 = PERSON ( 'NEURÈENÝ', 'NEURÈENÝ', 'NEURÈENÝ', ('NEURÈENÝ'), ('NEURÈENÝ'), ('NEURÈENÝ') ) ;
#100 = APPROVAL_STATUS ( 'not_yet_approved' ) ;
#101 = CARTESIAN_POINT ( 'NONE',  ( 0.000000000000000000, 0.000000000000000000, 3.000000000000000000 ) ) ;
#102 = EDGE_CURVE ( 'NONE', #145, #35, #247, .T. ) ;
#103 = CARTESIAN_POINT ( 'NONE',  ( -4.000000000000000000, 0.000000000000000000, 3.000000000000000000 ) ) ;
#104 = DIRECTION ( 'NONE',  ( 1.000000000000000000, 0.000000000000000000, 0.000000000000000000 ) ) ;
#105 = ADVANCED_FACE ( 'NONE', ( #143 ), #98, .T. ) ;
#106 = ORIENTED_EDGE ( 'NONE', *, *, #3, .F. ) ;
#107 = PRODUCT_DEFINITION_FORMATION_WITH_SPECIFIED_SOURCE ( 'LIBOVOLNÝ', '', #215, .NOT_KNOWN. ) ;
#108 = DIRECTION ( 'NONE',  ( 1.000000000000000000, 0.000000000000000000, 0.000000000000000000 ) ) ;
#109 = ORIENTED_EDGE ( 'NONE', *, *, #102, .F. ) ;
#110 = VERTEX_POINT ( 'NONE', #59 ) ;
#111 = EDGE_CURVE ( 'NONE', #186, #190, #204, .T. ) ;
#112 = CIRCLE ( 'NONE', #129, 4.000000000000000000 ) ;
#113 = ADVANCED_FACE ( 'NONE', ( #122 ), #184, .T. ) ;
#114 = COORDINATED_UNIVERSAL_TIME_OFFSET ( 1, 0, .AHEAD. ) ;
#115 = APPROVAL_STATUS ( 'not_yet_approved' ) ;
#116 = PERSON_AND_ORGANIZATION_ROLE ( 'creator' ) ;
#117 = AXIS2_PLACEMENT_3D ( 'NONE', #209, #131, #48 ) ;
#118 = CIRCLE ( 'NONE', #231, 2.100000000000000089 ) ;
#119 = ADVANCED_FACE ( 'NONE', ( #56 ), #182, .F. ) ;
#120 = CARTESIAN_POINT ( 'NONE',  ( 0.000000000000000000, 0.000000000000000000, 3.000000000000000000 ) ) ;
#121 = DIRECTION ( 'NONE',  ( 0.000000000000000000, 0.000000000000000000, 1.000000000000000000 ) ) ;
#122 = FACE_OUTER_BOUND ( 'NONE', #65, .T. ) ;
#123 = DIRECTION ( 'NONE',  ( 0.000000000000000000, 0.000000000000000000, 1.000000000000000000 ) ) ;
#124 = LOCAL_TIME ( 19, 50, 6.000000000000000000, #152 ) ;
#125 = DIRECTION ( 'NONE',  ( 0.000000000000000000, 0.000000000000000000, 1.000000000000000000 ) ) ;
#126 = EDGE_CURVE ( 'NONE', #68, #237, #112, .T. ) ;
#127 = EDGE_LOOP ( 'NONE', ( #179, #13, #168, #12 ) ) ;
#128 = ORIENTED_EDGE ( 'NONE', *, *, #70, .F. ) ;
#129 = AXIS2_PLACEMENT_3D ( 'NONE', #101, #123, #144 ) ;
#130 = FACE_OUTER_BOUND ( 'NONE', #8, .T. ) ;
#131 = DIRECTION ( 'NONE',  ( -0.000000000000000000, -0.000000000000000000, -1.000000000000000000 ) ) ;
#132 = CC_DESIGN_APPROVAL ( #142, ( #189 ) ) ;
#133 = PERSON_AND_ORGANIZATION ( #99, #193 ) ;
#134 = PERSON_AND_ORGANIZATION ( #99, #193 ) ;
#135 = AXIS2_PLACEMENT_3D ( 'NONE', #5, #220, #241 ) ;
#136 = PERSON_AND_ORGANIZATION_ROLE ( 'design_owner' ) ;
#137 = DIRECTION ( 'NONE',  ( 1.000000000000000000, 0.000000000000000000, 0.000000000000000000 ) ) ;
#138 = CALENDAR_DATE ( 2022, 7, 7 ) ;
#139 = APPLICATION_CONTEXT ( 'configuration controlled 3d designs of mechanical parts and assemblies' ) ;
#140 = DIRECTION ( 'NONE',  ( 1.000000000000000000, 0.000000000000000000, 0.000000000000000000 ) ) ;
#141 = CC_DESIGN_APPROVAL ( #183, ( #210 ) ) ;
#142 = APPROVAL ( #115, 'NEURÈENÝ' ) ;
#143 = FACE_OUTER_BOUND ( 'NONE', #149, .T. ) ;
#144 = DIRECTION ( 'NONE',  ( 1.000000000000000000, 0.000000000000000000, 0.000000000000000000 ) ) ;
#145 = VERTEX_POINT ( 'NONE', #238 ) ;
#146 = CARTESIAN_POINT ( 'NONE',  ( 0.000000000000000000, 0.000000000000000000, 3.000000000000000000 ) ) ;
#147 = ADVANCED_FACE ( 'NONE', ( #60, #255 ), #75, .T. ) ;
#148 = CARTESIAN_POINT ( 'NONE',  ( 2.100000000000000089, 2.571758278209441957E-16, 3.000000000000000000 ) ) ;
#149 = EDGE_LOOP ( 'NONE', ( #128, #47, #192, #55 ) ) ;
#150 = ORIENTED_EDGE ( 'NONE', *, *, #37, .T. ) ;
#151 = CARTESIAN_POINT ( 'NONE',  ( -4.000000000000000000, 0.000000000000000000, 0.000000000000000000 ) ) ;
#152 = COORDINATED_UNIVERSAL_TIME_OFFSET ( 1, 0, .AHEAD. ) ;
#153 = AXIS2_PLACEMENT_3D ( 'NONE', #164, #242, #44 ) ;
#154 = APPROVAL_PERSON_ORGANIZATION ( #174, #183, #79 ) ;
#155 = MECHANICAL_CONTEXT ( 'NONE', #87, 'mechanical' ) ;
#156 = APPROVAL_DATE_TIME ( #236, #9 ) ;
#157 = CALENDAR_DATE ( 2022, 7, 7 ) ;
#158 = LINE ( 'NONE', #180, #167 ) ;
#159 = CARTESIAN_POINT ( 'NONE',  ( 0.000000000000000000, 0.000000000000000000, 3.000000000000000000 ) ) ;
#160 = ADVANCED_BREP_SHAPE_REPRESENTATION ( 'bf08', ( #66, #72 ), #218 ) ;
#161 = DIRECTION ( 'NONE',  ( 0.000000000000000000, 0.000000000000000000, 1.000000000000000000 ) ) ;
#162 = VECTOR ( 'NONE', #185, 1000.000000000000000 ) ;
#163 = PRODUCT_RELATED_PRODUCT_CATEGORY ( 'detail', '', ( #215 ) ) ;
#164 = CARTESIAN_POINT ( 'NONE',  ( 0.000000000000000000, 0.000000000000000000, 253.0000000000000000 ) ) ;
#165 = DIRECTION ( 'NONE',  ( 1.000000000000000000, 0.000000000000000000, 0.000000000000000000 ) ) ;
#166 = ORIENTED_EDGE ( 'NONE', *, *, #111, .F. ) ;
#167 = VECTOR ( 'NONE', #1, 1000.000000000000000 ) ;
#168 = ORIENTED_EDGE ( 'NONE', *, *, #239, .T. ) ;
#169 = ORIENTED_EDGE ( 'NONE', *, *, #20, .T. ) ;
#170 = AXIS2_PLACEMENT_3D ( 'NONE', #200, #42, #137 ) ;
#171 = ORIENTED_EDGE ( 'NONE', *, *, #20, .F. ) ;
#172 = EDGE_CURVE ( 'NONE', #110, #36, #158, .T. ) ;
#173 = ORIENTED_EDGE ( 'NONE', *, *, #244, .F. ) ;
#174 = PERSON_AND_ORGANIZATION ( #99, #193 ) ;
#175 = LOCAL_TIME ( 19, 50, 6.000000000000000000, #94 ) ;
#176 = PERSON_AND_ORGANIZATION_ROLE ( 'design_supplier' ) ;
#177 = APPROVAL_DATE_TIME ( #73, #142 ) ;
#178 = CALENDAR_DATE ( 2022, 7, 7 ) ;
#179 = ORIENTED_EDGE ( 'NONE', *, *, #226, .F. ) ;
#180 = CARTESIAN_POINT ( 'NONE',  ( 2.100000000000000089, 2.571758278209441957E-16, 253.0000000000000000 ) ) ;
#181 = CIRCLE ( 'NONE', #63, 2.100000000000000089 ) ;
#182 = PLANE ( 'NONE',  #223 ) ;
#183 = APPROVAL ( #100, 'NEURÈENÝ' ) ;
#184 = PLANE ( 'NONE',  #153 ) ;
#185 = DIRECTION ( 'NONE',  ( -0.000000000000000000, -0.000000000000000000, -1.000000000000000000 ) ) ;
#186 = VERTEX_POINT ( 'NONE', #26 ) ;
#187 = AXIS2_PLACEMENT_3D ( 'NONE', #240, #161, #140 ) ;
#188 = EDGE_LOOP ( 'NONE', ( #222, #229 ) ) ;
#189 = PRODUCT_DEFINITION ( 'NEZNÁMÝ', '', #107, #228 ) ;
#190 = VERTEX_POINT ( 'NONE', #77 ) ;
#191 = AXIS2_PLACEMENT_3D ( 'NONE', #88, #62, #84 ) ;
#192 = ORIENTED_EDGE ( 'NONE', *, *, #102, .T. ) ;
#193 = ORGANIZATION ( 'NEURÈENÝ', 'NEURÈENÝ', '' ) ;
#194 = CALENDAR_DATE ( 2022, 7, 7 ) ;
#195 = PERSON_AND_ORGANIZATION_ROLE ( 'classification_officer' ) ;
#196 = AXIS2_PLACEMENT_3D ( 'NONE', #82, #121, #165 ) ;
#197 = CALENDAR_DATE ( 2022, 7, 7 ) ;
#198 = PERSON_AND_ORGANIZATION ( #99, #193 ) ;
#199 = LOCAL_TIME ( 19, 50, 6.000000000000000000, #27 ) ;
#200 = CARTESIAN_POINT ( 'NONE',  ( 0.000000000000000000, 0.000000000000000000, 0.000000000000000000 ) ) ;
#201 = CIRCLE ( 'NONE', #187, 4.000000000000000000 ) ;
#202 =( LENGTH_UNIT ( ) NAMED_UNIT ( * ) SI_UNIT ( .MILLI., .METRE. ) );
#203 = CIRCLE ( 'NONE', #6, 4.000000000000000000 ) ;
#204 = LINE ( 'NONE', #221, #235 ) ;
#205 = DIRECTION ( 'NONE',  ( -0.000000000000000000, -0.000000000000000000, -1.000000000000000000 ) ) ;
#206 = CARTESIAN_POINT ( 'NONE',  ( -4.000000000000000000, 0.000000000000000000, 3.000000000000000000 ) ) ;
#207 = ORIENTED_EDGE ( 'NONE', *, *, #111, .T. ) ;
#208 = EDGE_CURVE ( 'NONE', #35, #145, #201, .T. ) ;
#209 = CARTESIAN_POINT ( 'NONE',  ( 0.000000000000000000, 0.000000000000000000, 253.0000000000000000 ) ) ;
#210 = SECURITY_CLASSIFICATION ( '', '', #71 ) ;
#211 = CC_DESIGN_PERSON_AND_ORGANIZATION_ASSIGNMENT ( #254, #195, ( #210 ) ) ;
#212 = ORIENTED_EDGE ( 'NONE', *, *, #37, .F. ) ;
#213 = APPROVAL_ROLE ( '' ) ;
#214 = CIRCLE ( 'NONE', #52, 2.100000000000000089 ) ;
#215 = PRODUCT ( 'bf08', 'bf08', '', ( #155 ) ) ;
#216 = CC_DESIGN_PERSON_AND_ORGANIZATION_ASSIGNMENT ( #134, #176, ( #107 ) ) ;
#217 = CARTESIAN_POINT ( 'NONE',  ( 4.000000000000000000, 4.898587196589412829E-16, 3.000000000000000000 ) ) ;
#218 =( GEOMETRIC_REPRESENTATION_CONTEXT ( 3 ) GLOBAL_UNCERTAINTY_ASSIGNED_CONTEXT ( ( #97 ) ) GLOBAL_UNIT_ASSIGNED_CONTEXT ( ( #202, #234, #250 ) ) REPRESENTATION_CONTEXT ( 'NONE', 'WORKASPACE' ) );
#219 = EDGE_LOOP ( 'NONE', ( #225, #106, #207, #169 ) ) ;
#220 = DIRECTION ( 'NONE',  ( -0.000000000000000000, -0.000000000000000000, -1.000000000000000000 ) ) ;
#221 = CARTESIAN_POINT ( 'NONE',  ( -2.100000000000000089, 0.000000000000000000, 253.0000000000000000 ) ) ;
#222 = ORIENTED_EDGE ( 'NONE', *, *, #126, .T. ) ;
#223 = AXIS2_PLACEMENT_3D ( 'NONE', #58, #96, #25 ) ;
#224 = ORIENTED_EDGE ( 'NONE', *, *, #208, .F. ) ;
#225 = ORIENTED_EDGE ( 'NONE', *, *, #172, .F. ) ;
#226 = EDGE_CURVE ( 'NONE', #237, #145, #2, .T. ) ;
#227 = CYLINDRICAL_SURFACE ( 'NONE', #117, 2.100000000000000089 ) ;
#228 = DESIGN_CONTEXT ( 'detailed design', #139, 'design' ) ;
#229 = ORIENTED_EDGE ( 'NONE', *, *, #70, .T. ) ;
#230 = DIRECTION ( 'NONE',  ( 1.000000000000000000, 0.000000000000000000, 0.000000000000000000 ) ) ;
#231 = AXIS2_PLACEMENT_3D ( 'NONE', #10, #33, #246 ) ;
#232 = PERSON_AND_ORGANIZATION ( #99, #193 ) ;
#233 = PERSON_AND_ORGANIZATION_ROLE ( 'creator' ) ;
#234 =( NAMED_UNIT ( * ) PLANE_ANGLE_UNIT ( ) SI_UNIT ( $, .RADIAN. ) );
#235 = VECTOR ( 'NONE', #205, 1000.000000000000000 ) ;
#236 = DATE_AND_TIME ( #157, #23 ) ;
#237 = VERTEX_POINT ( 'NONE', #217 ) ;
#238 = CARTESIAN_POINT ( 'NONE',  ( 4.000000000000000000, 4.898587196589412829E-16, 0.000000000000000000 ) ) ;
#239 = EDGE_CURVE ( 'NONE', #68, #35, #43, .T. ) ;
#240 = CARTESIAN_POINT ( 'NONE',  ( 0.000000000000000000, 0.000000000000000000, 0.000000000000000000 ) ) ;
#241 = DIRECTION ( 'NONE',  ( -1.000000000000000000, 0.000000000000000000, 0.000000000000000000 ) ) ;
#242 = DIRECTION ( 'NONE',  ( 0.000000000000000000, 0.000000000000000000, 1.000000000000000000 ) ) ;
#243 = LOCAL_TIME ( 19, 50, 6.000000000000000000, #38 ) ;
#244 = EDGE_CURVE ( 'NONE', #110, #186, #49, .T. ) ;
#245 = DIRECTION ( 'NONE',  ( 0.000000000000000000, 0.000000000000000000, 1.000000000000000000 ) ) ;
#246 = DIRECTION ( 'NONE',  ( 1.000000000000000000, 0.000000000000000000, 0.000000000000000000 ) ) ;
#247 = CIRCLE ( 'NONE', #170, 4.000000000000000000 ) ;
#248 = CYLINDRICAL_SURFACE ( 'NONE', #135, 4.000000000000000000 ) ;
#249 = ORIENTED_EDGE ( 'NONE', *, *, #172, .T. ) ;
#250 =( NAMED_UNIT ( * ) SI_UNIT ( $, .STERADIAN. ) SOLID_ANGLE_UNIT ( ) );
#251 = APPROVAL_PERSON_ORGANIZATION ( #54, #142, #253 ) ;
#252 = APPLICATION_PROTOCOL_DEFINITION ( 'international standard', 'config_control_design', 1994, #87 ) ;
#253 = APPROVAL_ROLE ( '' ) ;
#254 = PERSON_AND_ORGANIZATION ( #99, #193 ) ;
#255 = FACE_OUTER_BOUND ( 'NONE', #188, .T. ) ;
ENDSEC;
END-ISO-10303-21;
