ISO-10303-21;
HEADER;
FILE_DESCRIPTION (( 'STEP AP203' ),
    '1' );
FILE_NAME ('673d.STEP',
    '2023-02-13T15:51:23',
    ( '' ),
    ( '' ),
    'SwSTEP 2.0',
    'SolidWorks 2019',
    '' );
FILE_SCHEMA (( 'CONFIG_CONTROL_DESIGN' ));
ENDSEC;

DATA;
#1 = ORIENTED_EDGE ( 'NONE', *, *, #217, .F. ) ;
#2 = DIRECTION ( 'NONE',  ( 1.000000000000000000, 0.000000000000000000, -0.000000000000000000 ) ) ;
#3 = ORIENTED_EDGE ( 'NONE', *, *, #155, .F. ) ;
#4 = FACE_BOUND ( 'NONE', #76, .T. ) ;
#5 = CARTESIAN_POINT ( 'NONE',  ( 2.500000000000000000, 3.061616997868382648E-16, 100.0000000000000000 ) ) ;
#6 = DATE_TIME_ROLE ( 'creation_date' ) ;
#7 = CARTESIAN_POINT ( 'NONE',  ( -2.500000000000000000, 0.000000000000000000, 100.0000000000000000 ) ) ;
#8 =( GEOMETRIC_REPRESENTATION_CONTEXT ( 3 ) GLOBAL_UNCERTAINTY_ASSIGNED_CONTEXT ( ( #204 ) ) GLOBAL_UNIT_ASSIGNED_CONTEXT ( ( #72, #251, #231 ) ) REPRESENTATION_CONTEXT ( 'NONE', 'WORKASPACE' ) );
#9 = APPROVAL_ROLE ( '' ) ;
#10 = CARTESIAN_POINT ( 'NONE',  ( 0.000000000000000000, 0.000000000000000000, 100.0000000000000000 ) ) ;
#11 = APPROVAL_STATUS ( 'not_yet_approved' ) ;
#12 = ADVANCED_BREP_SHAPE_REPRESENTATION ( '673d', ( #249, #222 ), #8 ) ;
#13 = DIRECTION ( 'NONE',  ( 0.000000000000000000, 0.000000000000000000, 1.000000000000000000 ) ) ;
#14 = ORIENTED_EDGE ( 'NONE', *, *, #187, .T. ) ;
#15 = ORIENTED_EDGE ( 'NONE', *, *, #213, .T. ) ;
#16 = EDGE_CURVE ( 'NONE', #57, #77, #140, .T. ) ;
#17 = ORIENTED_EDGE ( 'NONE', *, *, #16, .T. ) ;
#18 = CC_DESIGN_PERSON_AND_ORGANIZATION_ASSIGNMENT ( #173, #29, ( #169 ) ) ;
#19 = EDGE_CURVE ( 'NONE', #40, #77, #137, .T. ) ;
#20 = DIRECTION ( 'NONE',  ( 0.000000000000000000, 0.000000000000000000, 1.000000000000000000 ) ) ;
#21 = VECTOR ( 'NONE', #145, 1000.000000000000000 ) ;
#22 = PRODUCT_RELATED_PRODUCT_CATEGORY ( 'detail', '', ( #164 ) ) ;
#23 = CARTESIAN_POINT ( 'NONE',  ( 0.000000000000000000, 0.000000000000000000, 3.000000000000000000 ) ) ;
#24 = PERSON_AND_ORGANIZATION ( #165, #175 ) ;
#25 = MECHANICAL_CONTEXT ( 'NONE', #167, 'mechanical' ) ;
#26 = AXIS2_PLACEMENT_3D ( 'NONE', #223, #58, #197 ) ;
#27 = PERSON_AND_ORGANIZATION ( #165, #175 ) ;
#28 = APPROVAL_DATE_TIME ( #33, #55 ) ;
#29 = PERSON_AND_ORGANIZATION_ROLE ( 'design_supplier' ) ;
#30 = PLANE ( 'NONE',  #95 ) ;
#31 = CIRCLE ( 'NONE', #179, 5.000000000000000000 ) ;
#32 = DIRECTION ( 'NONE',  ( -1.000000000000000000, 0.000000000000000000, 0.000000000000000000 ) ) ;
#33 = DATE_AND_TIME ( #174, #110 ) ;
#34 = VECTOR ( 'NONE', #43, 1000.000000000000000 ) ;
#35 = CC_DESIGN_SECURITY_CLASSIFICATION ( #49, ( #169 ) ) ;
#36 = EDGE_LOOP ( 'NONE', ( #38, #1, #97, #132 ) ) ;
#37 = CC_DESIGN_PERSON_AND_ORGANIZATION_ASSIGNMENT ( #27, #144, ( #169 ) ) ;
#38 = ORIENTED_EDGE ( 'NONE', *, *, #16, .F. ) ;
#39 = CARTESIAN_POINT ( 'NONE',  ( 0.000000000000000000, 0.000000000000000000, 3.000000000000000000 ) ) ;
#40 = VERTEX_POINT ( 'NONE', #81 ) ;
#41 = EDGE_LOOP ( 'NONE', ( #156, #114, #14, #112 ) ) ;
#42 = ADVANCED_FACE ( 'NONE', ( #4, #161 ), #220, .T. ) ;
#43 = DIRECTION ( 'NONE',  ( -0.000000000000000000, -0.000000000000000000, -1.000000000000000000 ) ) ;
#44 = CLOSED_SHELL ( 'NONE', ( #190, #206, #195, #42, #219, #67, #178 ) ) ;
#45 = PERSON_AND_ORGANIZATION_ROLE ( 'classification_officer' ) ;
#46 = DIRECTION ( 'NONE',  ( 0.000000000000000000, 0.000000000000000000, 1.000000000000000000 ) ) ;
#47 = APPROVAL_DATE_TIME ( #229, #154 ) ;
#48 = AXIS2_PLACEMENT_3D ( 'NONE', #23, #46, #103 ) ;
#49 = SECURITY_CLASSIFICATION ( '', '', #142 ) ;
#50 = FACE_OUTER_BOUND ( 'NONE', #153, .T. ) ;
#51 = APPROVAL ( #170, 'NEURÈENÝ' ) ;
#52 = EDGE_CURVE ( 'NONE', #57, #157, #160, .T. ) ;
#53 = DIRECTION ( 'NONE',  ( 1.000000000000000000, 0.000000000000000000, -0.000000000000000000 ) ) ;
#54 = APPROVAL_PERSON_ORGANIZATION ( #207, #51, #123 ) ;
#55 = APPROVAL ( #11, 'NEURÈENÝ' ) ;
#56 = APPROVAL_PERSON_ORGANIZATION ( #88, #154, #121 ) ;
#57 = VERTEX_POINT ( 'NONE', #122 ) ;
#58 = DIRECTION ( 'NONE',  ( 0.000000000000000000, 0.000000000000000000, 1.000000000000000000 ) ) ;
#59 = DESIGN_CONTEXT ( 'detailed design', #202, 'design' ) ;
#60 = APPLICATION_PROTOCOL_DEFINITION ( 'international standard', 'config_control_design', 1994, #202 ) ;
#61 = DATE_AND_TIME ( #247, #87 ) ;
#62 = DIRECTION ( 'NONE',  ( -0.000000000000000000, -0.000000000000000000, -1.000000000000000000 ) ) ;
#63 = APPROVAL_DATE_TIME ( #61, #51 ) ;
#64 = DIRECTION ( 'NONE',  ( 1.000000000000000000, 0.000000000000000000, -0.000000000000000000 ) ) ;
#65 = CC_DESIGN_PERSON_AND_ORGANIZATION_ASSIGNMENT ( #227, #45, ( #49 ) ) ;
#66 = PRODUCT_DEFINITION_SHAPE ( 'NONE', 'NONE',  #98 ) ;
#67 = ADVANCED_FACE ( 'NONE', ( #221 ), #141, .T. ) ;
#68 = CARTESIAN_POINT ( 'NONE',  ( 0.000000000000000000, 0.000000000000000000, 3.000000000000000000 ) ) ;
#69 = DIRECTION ( 'NONE',  ( 0.000000000000000000, 0.000000000000000000, 1.000000000000000000 ) ) ;
#70 = CARTESIAN_POINT ( 'NONE',  ( -2.500000000000000000, 0.000000000000000000, 3.000000000000000000 ) ) ;
#71 = VECTOR ( 'NONE', #240, 1000.000000000000000 ) ;
#72 =( LENGTH_UNIT ( ) NAMED_UNIT ( * ) SI_UNIT ( .MILLI., .METRE. ) );
#73 = CC_DESIGN_APPROVAL ( #51, ( #169 ) ) ;
#74 = CIRCLE ( 'NONE', #102, 5.000000000000000000 ) ;
#75 = ORIENTED_EDGE ( 'NONE', *, *, #155, .T. ) ;
#76 = EDGE_LOOP ( 'NONE', ( #136, #183 ) ) ;
#77 = VERTEX_POINT ( 'NONE', #162 ) ;
#78 = ORIENTED_EDGE ( 'NONE', *, *, #52, .T. ) ;
#79 = CARTESIAN_POINT ( 'NONE',  ( 0.000000000000000000, 0.000000000000000000, 100.0000000000000000 ) ) ;
#80 = ORIENTED_EDGE ( 'NONE', *, *, #217, .T. ) ;
#81 = CARTESIAN_POINT ( 'NONE',  ( -5.000000000000000000, 0.000000000000000000, 0.000000000000000000 ) ) ;
#82 = CIRCLE ( 'NONE', #146, 2.500000000000000000 ) ;
#83 = DIRECTION ( 'NONE',  ( -0.000000000000000000, -0.000000000000000000, -1.000000000000000000 ) ) ;
#84 = LOCAL_TIME ( 16, 51, 23.00000000000000000, #211 ) ;
#85 = APPLICATION_PROTOCOL_DEFINITION ( 'international standard', 'config_control_design', 1994, #167 ) ;
#86 = PERSON_AND_ORGANIZATION_ROLE ( 'design_owner' ) ;
#87 = LOCAL_TIME ( 16, 51, 23.00000000000000000, #245 ) ;
#88 = PERSON_AND_ORGANIZATION ( #165, #175 ) ;
#89 = COORDINATED_UNIVERSAL_TIME_OFFSET ( 1, 0, .AHEAD. ) ;
#90 = LOCAL_TIME ( 16, 51, 23.00000000000000000, #210 ) ;
#91 = PLANE ( 'NONE',  #133 ) ;
#92 = DIRECTION ( 'NONE',  ( 1.000000000000000000, 0.000000000000000000, 0.000000000000000000 ) ) ;
#93 = ORIENTED_EDGE ( 'NONE', *, *, #19, .F. ) ;
#94 = AXIS2_PLACEMENT_3D ( 'NONE', #39, #113, #2 ) ;
#95 = AXIS2_PLACEMENT_3D ( 'NONE', #108, #218, #53 ) ;
#96 = EDGE_LOOP ( 'NONE', ( #93, #3 ) ) ;
#97 = ORIENTED_EDGE ( 'NONE', *, *, #163, .T. ) ;
#98 = PRODUCT_DEFINITION ( 'NEZNÁMÝ', '', #169, #59 ) ;
#99 = LINE ( 'NONE', #5, #201 ) ;
#100 = ORIENTED_EDGE ( 'NONE', *, *, #187, .F. ) ;
#101 = ORIENTED_EDGE ( 'NONE', *, *, #107, .T. ) ;
#102 = AXIS2_PLACEMENT_3D ( 'NONE', #188, #20, #185 ) ;
#103 = DIRECTION ( 'NONE',  ( 1.000000000000000000, 0.000000000000000000, 0.000000000000000000 ) ) ;
#104 = CARTESIAN_POINT ( 'NONE',  ( 0.000000000000000000, 0.000000000000000000, 0.000000000000000000 ) ) ;
#105 = PERSON_AND_ORGANIZATION_ROLE ( 'creator' ) ;
#106 = DIRECTION ( 'NONE',  ( -0.000000000000000000, -0.000000000000000000, -1.000000000000000000 ) ) ;
#107 = EDGE_CURVE ( 'NONE', #184, #196, #82, .T. ) ;
#108 = CARTESIAN_POINT ( 'NONE',  ( 0.000000000000000000, 0.000000000000000000, 0.000000000000000000 ) ) ;
#109 = AXIS2_PLACEMENT_3D ( 'NONE', #79, #198, #224 ) ;
#110 = LOCAL_TIME ( 16, 51, 23.00000000000000000, #89 ) ;
#111 = VERTEX_POINT ( 'NONE', #159 ) ;
#112 = ORIENTED_EDGE ( 'NONE', *, *, #238, .T. ) ;
#113 = DIRECTION ( 'NONE',  ( 0.000000000000000000, 0.000000000000000000, 1.000000000000000000 ) ) ;
#114 = ORIENTED_EDGE ( 'NONE', *, *, #213, .F. ) ;
#115 = CARTESIAN_POINT ( 'NONE',  ( 5.000000000000000000, 6.123233995736766282E-16, 3.000000000000000000 ) ) ;
#116 = DIRECTION ( 'NONE',  ( 1.000000000000000000, 0.000000000000000000, 0.000000000000000000 ) ) ;
#117 = CIRCLE ( 'NONE', #252, 2.500000000000000000 ) ;
#118 = ORIENTED_EDGE ( 'NONE', *, *, #52, .F. ) ;
#119 = LINE ( 'NONE', #200, #34 ) ;
#120 = AXIS2_PLACEMENT_3D ( 'NONE', #246, #212, #130 ) ;
#121 = APPROVAL_ROLE ( '' ) ;
#122 = CARTESIAN_POINT ( 'NONE',  ( 5.000000000000000000, 6.123233995736766282E-16, 3.000000000000000000 ) ) ;
#123 = APPROVAL_ROLE ( '' ) ;
#124 = CARTESIAN_POINT ( 'NONE',  ( -2.500000000000000000, 0.000000000000000000, 100.0000000000000000 ) ) ;
#125 = FACE_OUTER_BOUND ( 'NONE', #237, .T. ) ;
#126 = DIRECTION ( 'NONE',  ( 0.000000000000000000, 0.000000000000000000, 1.000000000000000000 ) ) ;
#127 = CYLINDRICAL_SURFACE ( 'NONE', #236, 2.500000000000000000 ) ;
#128 = SHAPE_DEFINITION_REPRESENTATION ( #66, #12 ) ;
#129 = DIRECTION ( 'NONE',  ( 0.000000000000000000, 0.000000000000000000, 1.000000000000000000 ) ) ;
#130 = DIRECTION ( 'NONE',  ( -1.000000000000000000, 0.000000000000000000, 0.000000000000000000 ) ) ;
#131 = CC_DESIGN_APPROVAL ( #154, ( #98 ) ) ;
#132 = ORIENTED_EDGE ( 'NONE', *, *, #19, .T. ) ;
#133 = AXIS2_PLACEMENT_3D ( 'NONE', #10, #129, #64 ) ;
#134 = EDGE_LOOP ( 'NONE', ( #80, #78 ) ) ;
#135 = CIRCLE ( 'NONE', #182, 2.500000000000000000 ) ;
#136 = ORIENTED_EDGE ( 'NONE', *, *, #238, .F. ) ;
#137 = CIRCLE ( 'NONE', #26, 5.000000000000000000 ) ;
#138 = ORIENTED_EDGE ( 'NONE', *, *, #241, .T. ) ;
#139 = ORIENTED_EDGE ( 'NONE', *, *, #158, .T. ) ;
#140 = LINE ( 'NONE', #115, #71 ) ;
#141 = CYLINDRICAL_SURFACE ( 'NONE', #109, 2.500000000000000000 ) ;
#142 = SECURITY_CLASSIFICATION_LEVEL ( 'unclassified' ) ;
#143 = AXIS2_PLACEMENT_3D ( 'NONE', #214, #69, #234 ) ;
#144 = PERSON_AND_ORGANIZATION_ROLE ( 'creator' ) ;
#145 = DIRECTION ( 'NONE',  ( -0.000000000000000000, -0.000000000000000000, -1.000000000000000000 ) ) ;
#146 = AXIS2_PLACEMENT_3D ( 'NONE', #208, #186, #116 ) ;
#147 = DIRECTION ( 'NONE',  ( 0.000000000000000000, 0.000000000000000000, 1.000000000000000000 ) ) ;
#148 = CC_DESIGN_APPROVAL ( #55, ( #49 ) ) ;
#149 = DATE_TIME_ROLE ( 'classification_date' ) ;
#150 = CC_DESIGN_PERSON_AND_ORGANIZATION_ASSIGNMENT ( #228, #86, ( #164 ) ) ;
#151 = DIRECTION ( 'NONE',  ( 1.000000000000000000, 0.000000000000000000, 0.000000000000000000 ) ) ;
#152 = DIRECTION ( 'NONE',  ( 0.000000000000000000, 0.000000000000000000, 1.000000000000000000 ) ) ;
#153 = EDGE_LOOP ( 'NONE', ( #199, #139, #138, #100 ) ) ;
#154 = APPROVAL ( #189, 'NEURÈENÝ' ) ;
#155 = EDGE_CURVE ( 'NONE', #77, #40, #74, .T. ) ;
#156 = ORIENTED_EDGE ( 'NONE', *, *, #158, .F. ) ;
#157 = VERTEX_POINT ( 'NONE', #225 ) ;
#158 = EDGE_CURVE ( 'NONE', #184, #111, #99, .T. ) ;
#159 = CARTESIAN_POINT ( 'NONE',  ( 2.500000000000000000, 3.061616997868382648E-16, 3.000000000000000000 ) ) ;
#160 = CIRCLE ( 'NONE', #48, 5.000000000000000000 ) ;
#161 = FACE_OUTER_BOUND ( 'NONE', #134, .T. ) ;
#162 = CARTESIAN_POINT ( 'NONE',  ( 5.000000000000000000, 6.123233995736766282E-16, 0.000000000000000000 ) ) ;
#163 = EDGE_CURVE ( 'NONE', #157, #40, #119, .T. ) ;
#164 = PRODUCT ( '673d', '673d', '', ( #25 ) ) ;
#165 = PERSON ( 'NEURÈENÝ', 'NEURÈENÝ', 'NEURÈENÝ', ('NEURÈENÝ'), ('NEURÈENÝ'), ('NEURÈENÝ') ) ;
#166 = CALENDAR_DATE ( 2023, 13, 2 ) ;
#167 = APPLICATION_CONTEXT ( 'configuration controlled 3d designs of mechanical parts and assemblies' ) ;
#168 = CARTESIAN_POINT ( 'NONE',  ( 0.000000000000000000, 0.000000000000000000, 100.0000000000000000 ) ) ;
#169 = PRODUCT_DEFINITION_FORMATION_WITH_SPECIFIED_SOURCE ( 'LIBOVOLNÝ', '', #164, .NOT_KNOWN. ) ;
#170 = APPROVAL_STATUS ( 'not_yet_approved' ) ;
#171 = CALENDAR_DATE ( 2023, 13, 2 ) ;
#172 = LINE ( 'NONE', #7, #21 ) ;
#173 = PERSON_AND_ORGANIZATION ( #165, #175 ) ;
#174 = CALENDAR_DATE ( 2023, 13, 2 ) ;
#175 = ORGANIZATION ( 'NEURÈENÝ', 'NEURÈENÝ', '' ) ;
#176 = CARTESIAN_POINT ( 'NONE',  ( 0.000000000000000000, 0.000000000000000000, 3.000000000000000000 ) ) ;
#177 = DIRECTION ( 'NONE',  ( -1.000000000000000000, 0.000000000000000000, 0.000000000000000000 ) ) ;
#178 = ADVANCED_FACE ( 'NONE', ( #203 ), #91, .T. ) ;
#179 = AXIS2_PLACEMENT_3D ( 'NONE', #191, #147, #151 ) ;
#180 = ORIENTED_EDGE ( 'NONE', *, *, #163, .F. ) ;
#181 = EDGE_LOOP ( 'NONE', ( #15, #101 ) ) ;
#182 = AXIS2_PLACEMENT_3D ( 'NONE', #216, #13, #92 ) ;
#183 = ORIENTED_EDGE ( 'NONE', *, *, #241, .F. ) ;
#184 = VERTEX_POINT ( 'NONE', #250 ) ;
#185 = DIRECTION ( 'NONE',  ( 1.000000000000000000, 0.000000000000000000, 0.000000000000000000 ) ) ;
#186 = DIRECTION ( 'NONE',  ( 0.000000000000000000, 0.000000000000000000, 1.000000000000000000 ) ) ;
#187 = EDGE_CURVE ( 'NONE', #196, #255, #172, .T. ) ;
#188 = CARTESIAN_POINT ( 'NONE',  ( 0.000000000000000000, 0.000000000000000000, 0.000000000000000000 ) ) ;
#189 = APPROVAL_STATUS ( 'not_yet_approved' ) ;
#190 = ADVANCED_FACE ( 'NONE', ( #50 ), #127, .T. ) ;
#191 = CARTESIAN_POINT ( 'NONE',  ( 0.000000000000000000, 0.000000000000000000, 3.000000000000000000 ) ) ;
#192 = DATE_AND_TIME ( #166, #239 ) ;
#193 = AXIS2_PLACEMENT_3D ( 'NONE', #68, #62, #32 ) ;
#194 = DIRECTION ( 'NONE',  ( 1.000000000000000000, 0.000000000000000000, 0.000000000000000000 ) ) ;
#195 = ADVANCED_FACE ( 'NONE', ( #230 ), #253, .T. ) ;
#196 = VERTEX_POINT ( 'NONE', #124 ) ;
#197 = DIRECTION ( 'NONE',  ( 1.000000000000000000, 0.000000000000000000, 0.000000000000000000 ) ) ;
#198 = DIRECTION ( 'NONE',  ( -0.000000000000000000, -0.000000000000000000, -1.000000000000000000 ) ) ;
#199 = ORIENTED_EDGE ( 'NONE', *, *, #107, .F. ) ;
#200 = CARTESIAN_POINT ( 'NONE',  ( -5.000000000000000000, 0.000000000000000000, 3.000000000000000000 ) ) ;
#201 = VECTOR ( 'NONE', #83, 1000.000000000000000 ) ;
#202 = APPLICATION_CONTEXT ( 'configuration controlled 3d designs of mechanical parts and assemblies' ) ;
#203 = FACE_OUTER_BOUND ( 'NONE', #181, .T. ) ;
#204 = UNCERTAINTY_MEASURE_WITH_UNIT (LENGTH_MEASURE( 1.000000000000000082E-05 ), #72, 'distance_accuracy_value', 'NONE');
#205 = CALENDAR_DATE ( 2023, 13, 2 ) ;
#206 = ADVANCED_FACE ( 'NONE', ( #125 ), #215, .T. ) ;
#207 = PERSON_AND_ORGANIZATION ( #165, #175 ) ;
#208 = CARTESIAN_POINT ( 'NONE',  ( 0.000000000000000000, 0.000000000000000000, 100.0000000000000000 ) ) ;
#209 = COORDINATED_UNIVERSAL_TIME_OFFSET ( 1, 0, .AHEAD. ) ;
#210 = COORDINATED_UNIVERSAL_TIME_OFFSET ( 1, 0, .AHEAD. ) ;
#211 = COORDINATED_UNIVERSAL_TIME_OFFSET ( 1, 0, .AHEAD. ) ;
#212 = DIRECTION ( 'NONE',  ( -0.000000000000000000, -0.000000000000000000, -1.000000000000000000 ) ) ;
#213 = EDGE_CURVE ( 'NONE', #196, #184, #226, .T. ) ;
#214 = CARTESIAN_POINT ( 'NONE',  ( 0.000000000000000000, 0.000000000000000000, 100.0000000000000000 ) ) ;
#215 = CYLINDRICAL_SURFACE ( 'NONE', #193, 5.000000000000000000 ) ;
#216 = CARTESIAN_POINT ( 'NONE',  ( 0.000000000000000000, 0.000000000000000000, 3.000000000000000000 ) ) ;
#217 = EDGE_CURVE ( 'NONE', #157, #57, #31, .T. ) ;
#218 = DIRECTION ( 'NONE',  ( 0.000000000000000000, 0.000000000000000000, 1.000000000000000000 ) ) ;
#219 = ADVANCED_FACE ( 'NONE', ( #232 ), #30, .F. ) ;
#220 = PLANE ( 'NONE',  #94 ) ;
#221 = FACE_OUTER_BOUND ( 'NONE', #41, .T. ) ;
#222 = AXIS2_PLACEMENT_3D ( 'NONE', #104, #126, #243 ) ;
#223 = CARTESIAN_POINT ( 'NONE',  ( 0.000000000000000000, 0.000000000000000000, 0.000000000000000000 ) ) ;
#224 = DIRECTION ( 'NONE',  ( -1.000000000000000000, 0.000000000000000000, 0.000000000000000000 ) ) ;
#225 = CARTESIAN_POINT ( 'NONE',  ( -5.000000000000000000, 0.000000000000000000, 3.000000000000000000 ) ) ;
#226 = CIRCLE ( 'NONE', #143, 2.500000000000000000 ) ;
#227 = PERSON_AND_ORGANIZATION ( #165, #175 ) ;
#228 = PERSON_AND_ORGANIZATION ( #165, #175 ) ;
#229 = DATE_AND_TIME ( #205, #90 ) ;
#230 = FACE_OUTER_BOUND ( 'NONE', #36, .T. ) ;
#231 =( NAMED_UNIT ( * ) SI_UNIT ( $, .STERADIAN. ) SOLID_ANGLE_UNIT ( ) );
#232 = FACE_OUTER_BOUND ( 'NONE', #96, .T. ) ;
#233 = APPROVAL_PERSON_ORGANIZATION ( #248, #55, #9 ) ;
#234 = DIRECTION ( 'NONE',  ( 1.000000000000000000, 0.000000000000000000, 0.000000000000000000 ) ) ;
#235 = CC_DESIGN_DATE_AND_TIME_ASSIGNMENT ( #192, #6, ( #98 ) ) ;
#236 = AXIS2_PLACEMENT_3D ( 'NONE', #168, #106, #177 ) ;
#237 = EDGE_LOOP ( 'NONE', ( #118, #17, #75, #180 ) ) ;
#238 = EDGE_CURVE ( 'NONE', #255, #111, #117, .T. ) ;
#239 = LOCAL_TIME ( 16, 51, 23.00000000000000000, #209 ) ;
#240 = DIRECTION ( 'NONE',  ( -0.000000000000000000, -0.000000000000000000, -1.000000000000000000 ) ) ;
#241 = EDGE_CURVE ( 'NONE', #111, #255, #135, .T. ) ;
#242 = CC_DESIGN_DATE_AND_TIME_ASSIGNMENT ( #254, #149, ( #49 ) ) ;
#243 = DIRECTION ( 'NONE',  ( 1.000000000000000000, 0.000000000000000000, 0.000000000000000000 ) ) ;
#244 = CC_DESIGN_PERSON_AND_ORGANIZATION_ASSIGNMENT ( #24, #105, ( #98 ) ) ;
#245 = COORDINATED_UNIVERSAL_TIME_OFFSET ( 1, 0, .AHEAD. ) ;
#246 = CARTESIAN_POINT ( 'NONE',  ( 0.000000000000000000, 0.000000000000000000, 3.000000000000000000 ) ) ;
#247 = CALENDAR_DATE ( 2023, 13, 2 ) ;
#248 = PERSON_AND_ORGANIZATION ( #165, #175 ) ;
#249 = MANIFOLD_SOLID_BREP ( 'Pøidat vysunutím3', #44 ) ;
#250 = CARTESIAN_POINT ( 'NONE',  ( 2.500000000000000000, 3.061616997868382648E-16, 100.0000000000000000 ) ) ;
#251 =( NAMED_UNIT ( * ) PLANE_ANGLE_UNIT ( ) SI_UNIT ( $, .RADIAN. ) );
#252 = AXIS2_PLACEMENT_3D ( 'NONE', #176, #152, #194 ) ;
#253 = CYLINDRICAL_SURFACE ( 'NONE', #120, 5.000000000000000000 ) ;
#254 = DATE_AND_TIME ( #171, #84 ) ;
#255 = VERTEX_POINT ( 'NONE', #70 ) ;
ENDSEC;
END-ISO-10303-21;
