ISO-10303-21;
HEADER;
FILE_DESCRIPTION (( 'STEP AP203' ),
    '1' );
FILE_NAME ('e65f.STEP',
    '2022-07-07T17:25:12',
    ( '' ),
    ( '' ),
    'SwSTEP 2.0',
    'SolidWorks 2019',
    '' );
FILE_SCHEMA (( 'CONFIG_CONTROL_DESIGN' ));
ENDSEC;

DATA;
#1 = PRODUCT_RELATED_PRODUCT_CATEGORY ( 'detail', '', ( #130 ) ) ;
#2 = CIRCLE ( 'NONE', #107, 8.000000000000000000 ) ;
#3 = EDGE_LOOP ( 'NONE', ( #230, #26 ) ) ;
#4 = CARTESIAN_POINT ( 'NONE',  ( 0.000000000000000000, 0.000000000000000000, 5.000000000000000000 ) ) ;
#5 = ORIENTED_EDGE ( 'NONE', *, *, #156, .T. ) ;
#6 = CARTESIAN_POINT ( 'NONE',  ( 5.099999999999999645, 6.245698675651500839E-16, 405.0000000000000000 ) ) ;
#7 = ORIENTED_EDGE ( 'NONE', *, *, #255, .F. ) ;
#8 = EDGE_CURVE ( 'NONE', #85, #248, #120, .T. ) ;
#9 = CARTESIAN_POINT ( 'NONE',  ( 0.000000000000000000, 0.000000000000000000, 5.000000000000000000 ) ) ;
#10 = ORIENTED_EDGE ( 'NONE', *, *, #250, .T. ) ;
#11 = CARTESIAN_POINT ( 'NONE',  ( 0.000000000000000000, 0.000000000000000000, 405.0000000000000000 ) ) ;
#12 = CYLINDRICAL_SURFACE ( 'NONE', #72, 8.000000000000000000 ) ;
#13 = PERSON_AND_ORGANIZATION_ROLE ( 'creator' ) ;
#14 = CARTESIAN_POINT ( 'NONE',  ( 0.000000000000000000, 0.000000000000000000, 0.000000000000000000 ) ) ;
#15 =( LENGTH_UNIT ( ) NAMED_UNIT ( * ) SI_UNIT ( .MILLI., .METRE. ) );
#16 = DATE_AND_TIME ( #92, #73 ) ;
#17 = CARTESIAN_POINT ( 'NONE',  ( 0.000000000000000000, 0.000000000000000000, 5.000000000000000000 ) ) ;
#18 = CIRCLE ( 'NONE', #153, 8.000000000000000000 ) ;
#19 = DIRECTION ( 'NONE',  ( -0.000000000000000000, -0.000000000000000000, -1.000000000000000000 ) ) ;
#20 = APPROVAL_PERSON_ORGANIZATION ( #34, #80, #171 ) ;
#21 = CARTESIAN_POINT ( 'NONE',  ( -8.000000000000000000, 0.000000000000000000, 5.000000000000000000 ) ) ;
#22 = ORIENTED_EDGE ( 'NONE', *, *, #214, .T. ) ;
#23 = DIRECTION ( 'NONE',  ( -1.000000000000000000, 0.000000000000000000, 0.000000000000000000 ) ) ;
#24 = EDGE_LOOP ( 'NONE', ( #245, #161, #181, #22 ) ) ;
#25 = CARTESIAN_POINT ( 'NONE',  ( 5.099999999999999645, 6.245698675651500839E-16, 5.000000000000000000 ) ) ;
#26 = ORIENTED_EDGE ( 'NONE', *, *, #96, .F. ) ;
#27 = FACE_OUTER_BOUND ( 'NONE', #24, .T. ) ;
#28 = APPROVAL_PERSON_ORGANIZATION ( #151, #175, #253 ) ;
#29 = ADVANCED_FACE ( 'NONE', ( #57 ), #202, .F. ) ;
#30 = FACE_OUTER_BOUND ( 'NONE', #159, .T. ) ;
#31 = APPROVAL_ROLE ( '' ) ;
#32 = DATE_AND_TIME ( #174, #59 ) ;
#33 = APPROVAL_STATUS ( 'not_yet_approved' ) ;
#34 = PERSON_AND_ORGANIZATION ( #102, #77 ) ;
#35 = AXIS2_PLACEMENT_3D ( 'NONE', #63, #40, #87 ) ;
#36 = ORIENTED_EDGE ( 'NONE', *, *, #8, .T. ) ;
#37 = ORIENTED_EDGE ( 'NONE', *, *, #8, .F. ) ;
#38 = CC_DESIGN_APPROVAL ( #80, ( #246 ) ) ;
#39 = CARTESIAN_POINT ( 'NONE',  ( -8.000000000000000000, 0.000000000000000000, 5.000000000000000000 ) ) ;
#40 = DIRECTION ( 'NONE',  ( 0.000000000000000000, 0.000000000000000000, 1.000000000000000000 ) ) ;
#41 = CARTESIAN_POINT ( 'NONE',  ( -5.099999999999999645, 0.000000000000000000, 405.0000000000000000 ) ) ;
#42 = DIRECTION ( 'NONE',  ( -1.000000000000000000, 0.000000000000000000, 0.000000000000000000 ) ) ;
#43 = DIRECTION ( 'NONE',  ( -0.000000000000000000, -0.000000000000000000, -1.000000000000000000 ) ) ;
#44 = VECTOR ( 'NONE', #103, 1000.000000000000000 ) ;
#45 = CARTESIAN_POINT ( 'NONE',  ( 0.000000000000000000, 0.000000000000000000, 405.0000000000000000 ) ) ;
#46 = APPROVAL_DATE_TIME ( #32, #80 ) ;
#47 = DIRECTION ( 'NONE',  ( 1.000000000000000000, 0.000000000000000000, 0.000000000000000000 ) ) ;
#48 = DATE_TIME_ROLE ( 'classification_date' ) ;
#49 = DATE_AND_TIME ( #234, #118 ) ;
#50 = PERSON_AND_ORGANIZATION_ROLE ( 'design_supplier' ) ;
#51 = CARTESIAN_POINT ( 'NONE',  ( 0.000000000000000000, 0.000000000000000000, 0.000000000000000000 ) ) ;
#52 = ADVANCED_FACE ( 'NONE', ( #206 ), #124, .T. ) ;
#53 = EDGE_CURVE ( 'NONE', #61, #242, #94, .T. ) ;
#54 = ORIENTED_EDGE ( 'NONE', *, *, #250, .F. ) ;
#55 = ORIENTED_EDGE ( 'NONE', *, *, #96, .T. ) ;
#56 = DIRECTION ( 'NONE',  ( 0.000000000000000000, 0.000000000000000000, 1.000000000000000000 ) ) ;
#57 = FACE_OUTER_BOUND ( 'NONE', #104, .T. ) ;
#58 = AXIS2_PLACEMENT_3D ( 'NONE', #160, #226, #243 ) ;
#59 = LOCAL_TIME ( 19, 25, 12.00000000000000000, #199 ) ;
#60 = DIRECTION ( 'NONE',  ( 1.000000000000000000, 0.000000000000000000, 0.000000000000000000 ) ) ;
#61 = VERTEX_POINT ( 'NONE', #163 ) ;
#62 = DIRECTION ( 'NONE',  ( 1.000000000000000000, 0.000000000000000000, 0.000000000000000000 ) ) ;
#63 = CARTESIAN_POINT ( 'NONE',  ( 0.000000000000000000, 0.000000000000000000, 0.000000000000000000 ) ) ;
#64 = DIRECTION ( 'NONE',  ( -0.000000000000000000, -0.000000000000000000, -1.000000000000000000 ) ) ;
#65 = PERSON_AND_ORGANIZATION_ROLE ( 'creator' ) ;
#66 = APPROVAL_PERSON_ORGANIZATION ( #67, #201, #31 ) ;
#67 = PERSON_AND_ORGANIZATION ( #102, #77 ) ;
#68 = DIRECTION ( 'NONE',  ( 0.000000000000000000, 0.000000000000000000, 1.000000000000000000 ) ) ;
#69 = CC_DESIGN_DATE_AND_TIME_ASSIGNMENT ( #149, #48, ( #134 ) ) ;
#70 = APPLICATION_CONTEXT ( 'configuration controlled 3d designs of mechanical parts and assemblies' ) ;
#71 = COORDINATED_UNIVERSAL_TIME_OFFSET ( 1, 0, .AHEAD. ) ;
#72 = AXIS2_PLACEMENT_3D ( 'NONE', #9, #43, #241 ) ;
#73 = LOCAL_TIME ( 19, 25, 12.00000000000000000, #110 ) ;
#74 = DIRECTION ( 'NONE',  ( 1.000000000000000000, 0.000000000000000000, 0.000000000000000000 ) ) ;
#75 = APPLICATION_CONTEXT ( 'configuration controlled 3d designs of mechanical parts and assemblies' ) ;
#76 = CC_DESIGN_PERSON_AND_ORGANIZATION_ASSIGNMENT ( #220, #65, ( #91 ) ) ;
#77 = ORGANIZATION ( 'NEURÈENÝ', 'NEURÈENÝ', '' ) ;
#78 = AXIS2_PLACEMENT_3D ( 'NONE', #11, #123, #212 ) ;
#79 = CC_DESIGN_SECURITY_CLASSIFICATION ( #134, ( #91 ) ) ;
#80 = APPROVAL ( #115, 'NEURÈENÝ' ) ;
#81 = VERTEX_POINT ( 'NONE', #247 ) ;
#82 = CARTESIAN_POINT ( 'NONE',  ( 0.000000000000000000, 0.000000000000000000, 0.000000000000000000 ) ) ;
#83 = DIRECTION ( 'NONE',  ( -0.000000000000000000, -0.000000000000000000, -1.000000000000000000 ) ) ;
#84 = DIRECTION ( 'NONE',  ( -1.000000000000000000, 0.000000000000000000, 0.000000000000000000 ) ) ;
#85 = VERTEX_POINT ( 'NONE', #182 ) ;
#86 = CYLINDRICAL_SURFACE ( 'NONE', #251, 5.099999999999999645 ) ;
#87 = DIRECTION ( 'NONE',  ( 1.000000000000000000, 0.000000000000000000, -0.000000000000000000 ) ) ;
#88 = DIRECTION ( 'NONE',  ( 0.000000000000000000, 0.000000000000000000, 1.000000000000000000 ) ) ;
#89 = CLOSED_SHELL ( 'NONE', ( #172, #136, #52, #192, #29, #208, #97 ) ) ;
#90 = COORDINATED_UNIVERSAL_TIME_OFFSET ( 1, 0, .AHEAD. ) ;
#91 = PRODUCT_DEFINITION_FORMATION_WITH_SPECIFIED_SOURCE ( 'LIBOVOLNÝ', '', #130, .NOT_KNOWN. ) ;
#92 = CALENDAR_DATE ( 2022, 7, 7 ) ;
#93 = DIRECTION ( 'NONE',  ( 0.000000000000000000, 0.000000000000000000, 1.000000000000000000 ) ) ;
#94 = CIRCLE ( 'NONE', #177, 5.099999999999999645 ) ;
#95 = APPLICATION_PROTOCOL_DEFINITION ( 'international standard', 'config_control_design', 1994, #75 ) ;
#96 = EDGE_CURVE ( 'NONE', #137, #81, #184, .T. ) ;
#97 = ADVANCED_FACE ( 'NONE', ( #232 ), #231, .T. ) ;
#98 = DIRECTION ( 'NONE',  ( 0.000000000000000000, 0.000000000000000000, 1.000000000000000000 ) ) ;
#99 = DIRECTION ( 'NONE',  ( -0.000000000000000000, -0.000000000000000000, -1.000000000000000000 ) ) ;
#100 = LINE ( 'NONE', #41, #106 ) ;
#101 = CARTESIAN_POINT ( 'NONE',  ( 0.000000000000000000, 0.000000000000000000, 5.000000000000000000 ) ) ;
#102 = PERSON ( 'NEURÈENÝ', 'NEURÈENÝ', 'NEURÈENÝ', ('NEURÈENÝ'), ('NEURÈENÝ'), ('NEURÈENÝ') ) ;
#103 = DIRECTION ( 'NONE',  ( -0.000000000000000000, -0.000000000000000000, -1.000000000000000000 ) ) ;
#104 = EDGE_LOOP ( 'NONE', ( #138, #7 ) ) ;
#105 = CC_DESIGN_PERSON_AND_ORGANIZATION_ASSIGNMENT ( #213, #198, ( #134 ) ) ;
#106 = VECTOR ( 'NONE', #180, 1000.000000000000000 ) ;
#107 = AXIS2_PLACEMENT_3D ( 'NONE', #249, #147, #125 ) ;
#108 = LINE ( 'NONE', #39, #116 ) ;
#109 = PLANE ( 'NONE',  #222 ) ;
#110 = COORDINATED_UNIVERSAL_TIME_OFFSET ( 1, 0, .AHEAD. ) ;
#111 = DIRECTION ( 'NONE',  ( 1.000000000000000000, 0.000000000000000000, 0.000000000000000000 ) ) ;
#112 = APPROVAL_STATUS ( 'not_yet_approved' ) ;
#113 = UNCERTAINTY_MEASURE_WITH_UNIT (LENGTH_MEASURE( 1.000000000000000082E-05 ), #15, 'distance_accuracy_value', 'NONE');
#114 = COORDINATED_UNIVERSAL_TIME_OFFSET ( 1, 0, .AHEAD. ) ;
#115 = APPROVAL_STATUS ( 'not_yet_approved' ) ;
#116 = VECTOR ( 'NONE', #185, 1000.000000000000000 ) ;
#117 = AXIS2_PLACEMENT_3D ( 'NONE', #101, #19, #42 ) ;
#118 = LOCAL_TIME ( 19, 25, 12.00000000000000000, #71 ) ;
#119 = DESIGN_CONTEXT ( 'detailed design', #75, 'design' ) ;
#120 = LINE ( 'NONE', #144, #237 ) ;
#121 = EDGE_CURVE ( 'NONE', #204, #146, #108, .T. ) ;
#122 = ORIENTED_EDGE ( 'NONE', *, *, #139, .T. ) ;
#123 = DIRECTION ( 'NONE',  ( 0.000000000000000000, 0.000000000000000000, 1.000000000000000000 ) ) ;
#124 = CYLINDRICAL_SURFACE ( 'NONE', #117, 8.000000000000000000 ) ;
#125 = DIRECTION ( 'NONE',  ( 1.000000000000000000, 0.000000000000000000, 0.000000000000000000 ) ) ;
#126 = CC_DESIGN_PERSON_AND_ORGANIZATION_ASSIGNMENT ( #221, #236, ( #130 ) ) ;
#127 = EDGE_LOOP ( 'NONE', ( #37, #209, #239, #240 ) ) ;
#128 = FACE_OUTER_BOUND ( 'NONE', #225, .T. ) ;
#129 = FACE_BOUND ( 'NONE', #3, .T. ) ;
#130 = PRODUCT ( 'e65f', 'e65f', '', ( #131 ) ) ;
#131 = MECHANICAL_CONTEXT ( 'NONE', #70, 'mechanical' ) ;
#132 = MANIFOLD_SOLID_BREP ( 'Pøidat vysunutím3', #89 ) ;
#133 = APPROVAL_DATE_TIME ( #49, #175 ) ;
#134 = SECURITY_CLASSIFICATION ( '', '', #216 ) ;
#135 = APPROVAL_DATE_TIME ( #16, #201 ) ;
#136 = ADVANCED_FACE ( 'NONE', ( #30 ), #12, .T. ) ;
#137 = VERTEX_POINT ( 'NONE', #25 ) ;
#138 = ORIENTED_EDGE ( 'NONE', *, *, #235, .F. ) ;
#139 = EDGE_CURVE ( 'NONE', #242, #137, #207, .T. ) ;
#140 = FACE_OUTER_BOUND ( 'NONE', #224, .T. ) ;
#141 = ORIENTED_EDGE ( 'NONE', *, *, #121, .F. ) ;
#142 = AXIS2_PLACEMENT_3D ( 'NONE', #82, #56, #254 ) ;
#143 = DIRECTION ( 'NONE',  ( 0.000000000000000000, 0.000000000000000000, 1.000000000000000000 ) ) ;
#144 = CARTESIAN_POINT ( 'NONE',  ( 8.000000000000000000, 9.797174393178825657E-16, 5.000000000000000000 ) ) ;
#145 = CARTESIAN_POINT ( 'NONE',  ( 0.000000000000000000, 0.000000000000000000, 5.000000000000000000 ) ) ;
#146 = VERTEX_POINT ( 'NONE', #189 ) ;
#147 = DIRECTION ( 'NONE',  ( 0.000000000000000000, 0.000000000000000000, 1.000000000000000000 ) ) ;
#148 = CALENDAR_DATE ( 2022, 7, 7 ) ;
#149 = DATE_AND_TIME ( #194, #217 ) ;
#150 = DATE_AND_TIME ( #148, #187 ) ;
#151 = PERSON_AND_ORGANIZATION ( #102, #77 ) ;
#152 = CC_DESIGN_DATE_AND_TIME_ASSIGNMENT ( #150, #215, ( #246 ) ) ;
#153 = AXIS2_PLACEMENT_3D ( 'NONE', #14, #93, #47 ) ;
#154 =( NAMED_UNIT ( * ) SI_UNIT ( $, .STERADIAN. ) SOLID_ANGLE_UNIT ( ) );
#155 = CIRCLE ( 'NONE', #203, 5.099999999999999645 ) ;
#156 = EDGE_CURVE ( 'NONE', #242, #61, #200, .T. ) ;
#157 =( GEOMETRIC_REPRESENTATION_CONTEXT ( 3 ) GLOBAL_UNCERTAINTY_ASSIGNED_CONTEXT ( ( #113 ) ) GLOBAL_UNIT_ASSIGNED_CONTEXT ( ( #15, #218, #154 ) ) REPRESENTATION_CONTEXT ( 'NONE', 'WORKASPACE' ) );
#158 = ORIENTED_EDGE ( 'NONE', *, *, #255, .T. ) ;
#159 = EDGE_LOOP ( 'NONE', ( #54, #36, #158, #141 ) ) ;
#160 = CARTESIAN_POINT ( 'NONE',  ( 0.000000000000000000, 0.000000000000000000, 405.0000000000000000 ) ) ;
#161 = ORIENTED_EDGE ( 'NONE', *, *, #53, .F. ) ;
#162 = CC_DESIGN_PERSON_AND_ORGANIZATION_ASSIGNMENT ( #191, #13, ( #246 ) ) ;
#163 = CARTESIAN_POINT ( 'NONE',  ( -5.099999999999999645, 0.000000000000000000, 405.0000000000000000 ) ) ;
#164 = ORIENTED_EDGE ( 'NONE', *, *, #211, .F. ) ;
#165 = AXIS2_PLACEMENT_3D ( 'NONE', #229, #99, #23 ) ;
#166 = DIRECTION ( 'NONE',  ( 1.000000000000000000, 0.000000000000000000, -0.000000000000000000 ) ) ;
#167 = CARTESIAN_POINT ( 'NONE',  ( 0.000000000000000000, 0.000000000000000000, 405.0000000000000000 ) ) ;
#168 = DIRECTION ( 'NONE',  ( 1.000000000000000000, 0.000000000000000000, 0.000000000000000000 ) ) ;
#169 = APPLICATION_PROTOCOL_DEFINITION ( 'international standard', 'config_control_design', 1994, #70 ) ;
#170 = PERSON_AND_ORGANIZATION ( #102, #77 ) ;
#171 = APPROVAL_ROLE ( '' ) ;
#172 = ADVANCED_FACE ( 'NONE', ( #128 ), #86, .T. ) ;
#173 = CC_DESIGN_APPROVAL ( #175, ( #91 ) ) ;
#174 = CALENDAR_DATE ( 2022, 7, 7 ) ;
#175 = APPROVAL ( #112, 'NEURÈENÝ' ) ;
#176 = AXIS2_PLACEMENT_3D ( 'NONE', #51, #68, #111 ) ;
#177 = AXIS2_PLACEMENT_3D ( 'NONE', #167, #98, #62 ) ;
#178 = CIRCLE ( 'NONE', #142, 8.000000000000000000 ) ;
#179 = ORIENTED_EDGE ( 'NONE', *, *, #223, .T. ) ;
#180 = DIRECTION ( 'NONE',  ( -0.000000000000000000, -0.000000000000000000, -1.000000000000000000 ) ) ;
#181 = ORIENTED_EDGE ( 'NONE', *, *, #211, .T. ) ;
#182 = CARTESIAN_POINT ( 'NONE',  ( 8.000000000000000000, 9.797174393178825657E-16, 5.000000000000000000 ) ) ;
#183 = ORIENTED_EDGE ( 'NONE', *, *, #53, .T. ) ;
#184 = CIRCLE ( 'NONE', #193, 5.099999999999999645 ) ;
#185 = DIRECTION ( 'NONE',  ( -0.000000000000000000, -0.000000000000000000, -1.000000000000000000 ) ) ;
#186 = EDGE_LOOP ( 'NONE', ( #183, #5 ) ) ;
#187 = LOCAL_TIME ( 19, 25, 12.00000000000000000, #90 ) ;
#188 = ADVANCED_BREP_SHAPE_REPRESENTATION ( 'e65f', ( #132, #176 ), #157 ) ;
#189 = CARTESIAN_POINT ( 'NONE',  ( -8.000000000000000000, 0.000000000000000000, 0.000000000000000000 ) ) ;
#190 = CARTESIAN_POINT ( 'NONE',  ( 0.000000000000000000, 0.000000000000000000, 5.000000000000000000 ) ) ;
#191 = PERSON_AND_ORGANIZATION ( #102, #77 ) ;
#192 = ADVANCED_FACE ( 'NONE', ( #129, #140 ), #109, .T. ) ;
#193 = AXIS2_PLACEMENT_3D ( 'NONE', #145, #143, #60 ) ;
#194 = CALENDAR_DATE ( 2022, 7, 7 ) ;
#195 = AXIS2_PLACEMENT_3D ( 'NONE', #17, #197, #74 ) ;
#196 = CARTESIAN_POINT ( 'NONE',  ( 8.000000000000000000, 9.797174393178825657E-16, 0.000000000000000000 ) ) ;
#197 = DIRECTION ( 'NONE',  ( 0.000000000000000000, 0.000000000000000000, 1.000000000000000000 ) ) ;
#198 = PERSON_AND_ORGANIZATION_ROLE ( 'classification_officer' ) ;
#199 = COORDINATED_UNIVERSAL_TIME_OFFSET ( 1, 0, .AHEAD. ) ;
#200 = CIRCLE ( 'NONE', #78, 5.099999999999999645 ) ;
#201 = APPROVAL ( #33, 'NEURÈENÝ' ) ;
#202 = PLANE ( 'NONE',  #35 ) ;
#203 = AXIS2_PLACEMENT_3D ( 'NONE', #4, #88, #168 ) ;
#204 = VERTEX_POINT ( 'NONE', #21 ) ;
#205 = CYLINDRICAL_SURFACE ( 'NONE', #165, 5.099999999999999645 ) ;
#206 = FACE_OUTER_BOUND ( 'NONE', #127, .T. ) ;
#207 = LINE ( 'NONE', #6, #44 ) ;
#208 = ADVANCED_FACE ( 'NONE', ( #27 ), #205, .T. ) ;
#209 = ORIENTED_EDGE ( 'NONE', *, *, #223, .F. ) ;
#210 = DIRECTION ( 'NONE',  ( 0.000000000000000000, 0.000000000000000000, 1.000000000000000000 ) ) ;
#211 = EDGE_CURVE ( 'NONE', #61, #81, #100, .T. ) ;
#212 = DIRECTION ( 'NONE',  ( 1.000000000000000000, 0.000000000000000000, 0.000000000000000000 ) ) ;
#213 = PERSON_AND_ORGANIZATION ( #102, #77 ) ;
#214 = EDGE_CURVE ( 'NONE', #81, #137, #155, .T. ) ;
#215 = DATE_TIME_ROLE ( 'creation_date' ) ;
#216 = SECURITY_CLASSIFICATION_LEVEL ( 'unclassified' ) ;
#217 = LOCAL_TIME ( 19, 25, 12.00000000000000000, #114 ) ;
#218 =( NAMED_UNIT ( * ) PLANE_ANGLE_UNIT ( ) SI_UNIT ( $, .RADIAN. ) );
#219 = PRODUCT_DEFINITION_SHAPE ( 'NONE', 'NONE',  #246 ) ;
#220 = PERSON_AND_ORGANIZATION ( #102, #77 ) ;
#221 = PERSON_AND_ORGANIZATION ( #102, #77 ) ;
#222 = AXIS2_PLACEMENT_3D ( 'NONE', #190, #210, #166 ) ;
#223 = EDGE_CURVE ( 'NONE', #204, #85, #2, .T. ) ;
#224 = EDGE_LOOP ( 'NONE', ( #179, #10 ) ) ;
#225 = EDGE_LOOP ( 'NONE', ( #228, #122, #55, #164 ) ) ;
#226 = DIRECTION ( 'NONE',  ( 0.000000000000000000, 0.000000000000000000, 1.000000000000000000 ) ) ;
#227 = CC_DESIGN_APPROVAL ( #201, ( #134 ) ) ;
#228 = ORIENTED_EDGE ( 'NONE', *, *, #156, .F. ) ;
#229 = CARTESIAN_POINT ( 'NONE',  ( 0.000000000000000000, 0.000000000000000000, 405.0000000000000000 ) ) ;
#230 = ORIENTED_EDGE ( 'NONE', *, *, #214, .F. ) ;
#231 = PLANE ( 'NONE',  #58 ) ;
#232 = FACE_OUTER_BOUND ( 'NONE', #186, .T. ) ;
#233 = CARTESIAN_POINT ( 'NONE',  ( 5.099999999999999645, 6.245698675651500839E-16, 405.0000000000000000 ) ) ;
#234 = CALENDAR_DATE ( 2022, 7, 7 ) ;
#235 = EDGE_CURVE ( 'NONE', #146, #248, #178, .T. ) ;
#236 = PERSON_AND_ORGANIZATION_ROLE ( 'design_owner' ) ;
#237 = VECTOR ( 'NONE', #83, 1000.000000000000000 ) ;
#238 = CC_DESIGN_PERSON_AND_ORGANIZATION_ASSIGNMENT ( #170, #50, ( #91 ) ) ;
#239 = ORIENTED_EDGE ( 'NONE', *, *, #121, .T. ) ;
#240 = ORIENTED_EDGE ( 'NONE', *, *, #235, .T. ) ;
#241 = DIRECTION ( 'NONE',  ( -1.000000000000000000, 0.000000000000000000, 0.000000000000000000 ) ) ;
#242 = VERTEX_POINT ( 'NONE', #233 ) ;
#243 = DIRECTION ( 'NONE',  ( 1.000000000000000000, 0.000000000000000000, -0.000000000000000000 ) ) ;
#244 = CIRCLE ( 'NONE', #195, 8.000000000000000000 ) ;
#245 = ORIENTED_EDGE ( 'NONE', *, *, #139, .F. ) ;
#246 = PRODUCT_DEFINITION ( 'NEZNÁMÝ', '', #91, #119 ) ;
#247 = CARTESIAN_POINT ( 'NONE',  ( -5.099999999999999645, 0.000000000000000000, 5.000000000000000000 ) ) ;
#248 = VERTEX_POINT ( 'NONE', #196 ) ;
#249 = CARTESIAN_POINT ( 'NONE',  ( 0.000000000000000000, 0.000000000000000000, 5.000000000000000000 ) ) ;
#250 = EDGE_CURVE ( 'NONE', #85, #204, #244, .T. ) ;
#251 = AXIS2_PLACEMENT_3D ( 'NONE', #45, #64, #84 ) ;
#252 = SHAPE_DEFINITION_REPRESENTATION ( #219, #188 ) ;
#253 = APPROVAL_ROLE ( '' ) ;
#254 = DIRECTION ( 'NONE',  ( 1.000000000000000000, 0.000000000000000000, 0.000000000000000000 ) ) ;
#255 = EDGE_CURVE ( 'NONE', #248, #146, #18, .T. ) ;
ENDSEC;
END-ISO-10303-21;
