ISO-10303-21;
HEADER;
FILE_DESCRIPTION (( 'STEP AP203' ),
    '1' );
FILE_NAME ('c735.STEP',
    '2022-07-07T17:24:54',
    ( '' ),
    ( '' ),
    'SwSTEP 2.0',
    'SolidWorks 2019',
    '' );
FILE_SCHEMA (( 'CONFIG_CONTROL_DESIGN' ));
ENDSEC;

DATA;
#1 = APPLICATION_PROTOCOL_DEFINITION ( 'international standard', 'config_control_design', 1994, #57 ) ;
#2 = DIRECTION ( 'NONE',  ( -1.000000000000000000, 0.000000000000000000, 0.000000000000000000 ) ) ;
#3 = VERTEX_POINT ( 'NONE', #8 ) ;
#4 = DIRECTION ( 'NONE',  ( 0.000000000000000000, 0.000000000000000000, 1.000000000000000000 ) ) ;
#5 = ORIENTED_EDGE ( 'NONE', *, *, #207, .F. ) ;
#6 = ORIENTED_EDGE ( 'NONE', *, *, #210, .F. ) ;
#7 = AXIS2_PLACEMENT_3D ( 'NONE', #109, #53, #112 ) ;
#8 = CARTESIAN_POINT ( 'NONE',  ( 8.000000000000000000, 9.797174393178825657E-16, 5.000000000000000000 ) ) ;
#9 = EDGE_CURVE ( 'NONE', #160, #236, #229, .T. ) ;
#10 = CIRCLE ( 'NONE', #230, 8.000000000000000000 ) ;
#11 = CC_DESIGN_PERSON_AND_ORGANIZATION_ASSIGNMENT ( #233, #68, ( #254 ) ) ;
#12 = LOCAL_TIME ( 19, 24, 54.00000000000000000, #113 ) ;
#13 = DIRECTION ( 'NONE',  ( 0.000000000000000000, 0.000000000000000000, 1.000000000000000000 ) ) ;
#14 = PERSON_AND_ORGANIZATION ( #145, #105 ) ;
#15 = LINE ( 'NONE', #92, #63 ) ;
#16 = DIRECTION ( 'NONE',  ( 0.000000000000000000, 0.000000000000000000, 1.000000000000000000 ) ) ;
#17 = EDGE_LOOP ( 'NONE', ( #239, #136, #99, #202 ) ) ;
#18 = CALENDAR_DATE ( 2022, 7, 7 ) ;
#19 = CYLINDRICAL_SURFACE ( 'NONE', #44, 8.000000000000000000 ) ;
#20 = LOCAL_TIME ( 19, 24, 54.00000000000000000, #251 ) ;
#21 = PRODUCT_DEFINITION ( 'NEZNÁMÝ', '', #125, #186 ) ;
#22 = ORIENTED_EDGE ( 'NONE', *, *, #107, .F. ) ;
#23 = DIRECTION ( 'NONE',  ( 0.000000000000000000, 0.000000000000000000, 1.000000000000000000 ) ) ;
#24 = CARTESIAN_POINT ( 'NONE',  ( -5.250000000000000000, 0.000000000000000000, 105.0000000000000142 ) ) ;
#25 = CARTESIAN_POINT ( 'NONE',  ( 0.000000000000000000, 0.000000000000000000, 0.000000000000000000 ) ) ;
#26 = FACE_BOUND ( 'NONE', #37, .T. ) ;
#27 = AXIS2_PLACEMENT_3D ( 'NONE', #114, #249, #222 ) ;
#28 = ORIENTED_EDGE ( 'NONE', *, *, #107, .T. ) ;
#29 = EDGE_CURVE ( 'NONE', #236, #160, #187, .T. ) ;
#30 = AXIS2_PLACEMENT_3D ( 'NONE', #200, #235, #139 ) ;
#31 = DATE_AND_TIME ( #18, #12 ) ;
#32 = DIRECTION ( 'NONE',  ( -0.000000000000000000, -0.000000000000000000, -1.000000000000000000 ) ) ;
#33 = PERSON_AND_ORGANIZATION_ROLE ( 'creator' ) ;
#34 = FACE_OUTER_BOUND ( 'NONE', #17, .T. ) ;
#35 = APPROVAL_ROLE ( '' ) ;
#36 = DIRECTION ( 'NONE',  ( 1.000000000000000000, 0.000000000000000000, 0.000000000000000000 ) ) ;
#37 = EDGE_LOOP ( 'NONE', ( #199, #22 ) ) ;
#38 = DIRECTION ( 'NONE',  ( -0.000000000000000000, -0.000000000000000000, -1.000000000000000000 ) ) ;
#39 = AXIS2_PLACEMENT_3D ( 'NONE', #232, #213, #218 ) ;
#40 = PLANE ( 'NONE',  #49 ) ;
#41 = ORIENTED_EDGE ( 'NONE', *, *, #152, .T. ) ;
#42 = VERTEX_POINT ( 'NONE', #180 ) ;
#43 = ORIENTED_EDGE ( 'NONE', *, *, #129, .T. ) ;
#44 = AXIS2_PLACEMENT_3D ( 'NONE', #137, #32, #79 ) ;
#45 = PRODUCT_DEFINITION_SHAPE ( 'NONE', 'NONE',  #21 ) ;
#46 = APPROVAL_DATE_TIME ( #188, #165 ) ;
#47 = CALENDAR_DATE ( 2022, 7, 7 ) ;
#48 = PERSON_AND_ORGANIZATION ( #145, #105 ) ;
#49 = AXIS2_PLACEMENT_3D ( 'NONE', #50, #98, #193 ) ;
#50 = CARTESIAN_POINT ( 'NONE',  ( 0.000000000000000000, 0.000000000000000000, 0.000000000000000000 ) ) ;
#51 =( GEOMETRIC_REPRESENTATION_CONTEXT ( 3 ) GLOBAL_UNCERTAINTY_ASSIGNED_CONTEXT ( ( #234 ) ) GLOBAL_UNIT_ASSIGNED_CONTEXT ( ( #237, #116, #175 ) ) REPRESENTATION_CONTEXT ( 'NONE', 'WORKASPACE' ) );
#52 = MECHANICAL_CONTEXT ( 'NONE', #57, 'mechanical' ) ;
#53 = DIRECTION ( 'NONE',  ( 0.000000000000000000, 0.000000000000000000, 1.000000000000000000 ) ) ;
#54 = PLANE ( 'NONE',  #128 ) ;
#55 = SECURITY_CLASSIFICATION_LEVEL ( 'unclassified' ) ;
#56 = CARTESIAN_POINT ( 'NONE',  ( 0.000000000000000000, 0.000000000000000000, 105.0000000000000142 ) ) ;
#57 = APPLICATION_CONTEXT ( 'configuration controlled 3d designs of mechanical parts and assemblies' ) ;
#58 = VERTEX_POINT ( 'NONE', #174 ) ;
#59 = FACE_OUTER_BOUND ( 'NONE', #153, .T. ) ;
#60 = APPROVAL_PERSON_ORGANIZATION ( #167, #165, #130 ) ;
#61 = DIRECTION ( 'NONE',  ( 0.000000000000000000, 0.000000000000000000, 1.000000000000000000 ) ) ;
#62 = EDGE_LOOP ( 'NONE', ( #41, #43 ) ) ;
#63 = VECTOR ( 'NONE', #70, 1000.000000000000000 ) ;
#64 = CC_DESIGN_PERSON_AND_ORGANIZATION_ASSIGNMENT ( #148, #33, ( #125 ) ) ;
#65 = AXIS2_PLACEMENT_3D ( 'NONE', #217, #23, #108 ) ;
#66 = CC_DESIGN_PERSON_AND_ORGANIZATION_ASSIGNMENT ( #212, #75, ( #21 ) ) ;
#67 = APPROVAL_DATE_TIME ( #90, #88 ) ;
#68 = PERSON_AND_ORGANIZATION_ROLE ( 'classification_officer' ) ;
#69 = CALENDAR_DATE ( 2022, 7, 7 ) ;
#70 = DIRECTION ( 'NONE',  ( -0.000000000000000000, -0.000000000000000000, -1.000000000000000000 ) ) ;
#71 = CLOSED_SHELL ( 'NONE', ( #182, #226, #198, #83, #164, #194, #154 ) ) ;
#72 = APPLICATION_PROTOCOL_DEFINITION ( 'international standard', 'config_control_design', 1994, #243 ) ;
#73 = CARTESIAN_POINT ( 'NONE',  ( 0.000000000000000000, 0.000000000000000000, 105.0000000000000142 ) ) ;
#74 = CARTESIAN_POINT ( 'NONE',  ( -8.000000000000000000, 0.000000000000000000, 5.000000000000000000 ) ) ;
#75 = PERSON_AND_ORGANIZATION_ROLE ( 'creator' ) ;
#76 = DIRECTION ( 'NONE',  ( -0.000000000000000000, -0.000000000000000000, -1.000000000000000000 ) ) ;
#77 = ORIENTED_EDGE ( 'NONE', *, *, #144, .F. ) ;
#78 = CC_DESIGN_DATE_AND_TIME_ASSIGNMENT ( #110, #231, ( #254 ) ) ;
#79 = DIRECTION ( 'NONE',  ( -1.000000000000000000, 0.000000000000000000, 0.000000000000000000 ) ) ;
#80 = ORIENTED_EDGE ( 'NONE', *, *, #82, .F. ) ;
#81 = ORIENTED_EDGE ( 'NONE', *, *, #144, .T. ) ;
#82 = EDGE_CURVE ( 'NONE', #3, #160, #140, .T. ) ;
#83 = ADVANCED_FACE ( 'NONE', ( #26, #183 ), #54, .T. ) ;
#84 = VECTOR ( 'NONE', #169, 1000.000000000000000 ) ;
#85 = APPROVAL_PERSON_ORGANIZATION ( #48, #161, #35 ) ;
#86 = PRODUCT ( 'c735', 'c735', '', ( #52 ) ) ;
#87 = COORDINATED_UNIVERSAL_TIME_OFFSET ( 1, 0, .AHEAD. ) ;
#88 = APPROVAL ( #168, 'NEURÈENÝ' ) ;
#89 = LOCAL_TIME ( 19, 24, 54.00000000000000000, #196 ) ;
#90 = DATE_AND_TIME ( #150, #89 ) ;
#91 = APPROVAL_STATUS ( 'not_yet_approved' ) ;
#92 = CARTESIAN_POINT ( 'NONE',  ( 5.250000000000000000, 6.429395695523604153E-16, 105.0000000000000142 ) ) ;
#93 = LINE ( 'NONE', #120, #84 ) ;
#94 = ORIENTED_EDGE ( 'NONE', *, *, #29, .T. ) ;
#95 = PERSON_AND_ORGANIZATION_ROLE ( 'design_supplier' ) ;
#96 = PLANE ( 'NONE',  #166 ) ;
#97 = VERTEX_POINT ( 'NONE', #255 ) ;
#98 = DIRECTION ( 'NONE',  ( 0.000000000000000000, 0.000000000000000000, 1.000000000000000000 ) ) ;
#99 = ORIENTED_EDGE ( 'NONE', *, *, #9, .T. ) ;
#100 = ORIENTED_EDGE ( 'NONE', *, *, #209, .T. ) ;
#101 = ORIENTED_EDGE ( 'NONE', *, *, #207, .T. ) ;
#102 = CIRCLE ( 'NONE', #7, 5.250000000000000000 ) ;
#103 = VERTEX_POINT ( 'NONE', #74 ) ;
#104 = AXIS2_PLACEMENT_3D ( 'NONE', #56, #135, #2 ) ;
#105 = ORGANIZATION ( 'NEURÈENÝ', 'NEURÈENÝ', '' ) ;
#106 = COORDINATED_UNIVERSAL_TIME_OFFSET ( 1, 0, .AHEAD. ) ;
#107 = EDGE_CURVE ( 'NONE', #42, #97, #143, .T. ) ;
#108 = DIRECTION ( 'NONE',  ( 1.000000000000000000, 0.000000000000000000, 0.000000000000000000 ) ) ;
#109 = CARTESIAN_POINT ( 'NONE',  ( 0.000000000000000000, 0.000000000000000000, 105.0000000000000142 ) ) ;
#110 = DATE_AND_TIME ( #47, #142 ) ;
#111 = PERSON_AND_ORGANIZATION ( #145, #105 ) ;
#112 = DIRECTION ( 'NONE',  ( 1.000000000000000000, 0.000000000000000000, 0.000000000000000000 ) ) ;
#113 = COORDINATED_UNIVERSAL_TIME_OFFSET ( 1, 0, .AHEAD. ) ;
#114 = CARTESIAN_POINT ( 'NONE',  ( 0.000000000000000000, 0.000000000000000000, 5.000000000000000000 ) ) ;
#115 = DIRECTION ( 'NONE',  ( 1.000000000000000000, 0.000000000000000000, 0.000000000000000000 ) ) ;
#116 =( NAMED_UNIT ( * ) PLANE_ANGLE_UNIT ( ) SI_UNIT ( $, .RADIAN. ) );
#117 = AXIS2_PLACEMENT_3D ( 'NONE', #252, #38, #118 ) ;
#118 = DIRECTION ( 'NONE',  ( -1.000000000000000000, 0.000000000000000000, 0.000000000000000000 ) ) ;
#119 = CARTESIAN_POINT ( 'NONE',  ( 0.000000000000000000, 0.000000000000000000, 0.000000000000000000 ) ) ;
#120 = CARTESIAN_POINT ( 'NONE',  ( -8.000000000000000000, 0.000000000000000000, 5.000000000000000000 ) ) ;
#121 = DIRECTION ( 'NONE',  ( -0.000000000000000000, -0.000000000000000000, -1.000000000000000000 ) ) ;
#122 = ORIENTED_EDGE ( 'NONE', *, *, #152, .F. ) ;
#123 = CC_DESIGN_APPROVAL ( #165, ( #254 ) ) ;
#124 = VERTEX_POINT ( 'NONE', #151 ) ;
#125 = PRODUCT_DEFINITION_FORMATION_WITH_SPECIFIED_SOURCE ( 'LIBOVOLNÝ', '', #86, .NOT_KNOWN. ) ;
#126 = AXIS2_PLACEMENT_3D ( 'NONE', #119, #216, #115 ) ;
#127 = EDGE_CURVE ( 'NONE', #103, #236, #93, .T. ) ;
#128 = AXIS2_PLACEMENT_3D ( 'NONE', #162, #244, #185 ) ;
#129 = EDGE_CURVE ( 'NONE', #3, #103, #10, .T. ) ;
#130 = APPROVAL_ROLE ( '' ) ;
#131 = PERSON_AND_ORGANIZATION ( #145, #105 ) ;
#132 = CYLINDRICAL_SURFACE ( 'NONE', #220, 5.250000000000000000 ) ;
#133 = CARTESIAN_POINT ( 'NONE',  ( 0.000000000000000000, 0.000000000000000000, 105.0000000000000142 ) ) ;
#134 = DATE_AND_TIME ( #69, #20 ) ;
#135 = DIRECTION ( 'NONE',  ( -0.000000000000000000, -0.000000000000000000, -1.000000000000000000 ) ) ;
#136 = ORIENTED_EDGE ( 'NONE', *, *, #82, .T. ) ;
#137 = CARTESIAN_POINT ( 'NONE',  ( 0.000000000000000000, 0.000000000000000000, 5.000000000000000000 ) ) ;
#138 = ORIENTED_EDGE ( 'NONE', *, *, #209, .F. ) ;
#139 = DIRECTION ( 'NONE',  ( 1.000000000000000000, 0.000000000000000000, 0.000000000000000000 ) ) ;
#140 = LINE ( 'NONE', #223, #172 ) ;
#141 = EDGE_LOOP ( 'NONE', ( #5, #100, #28, #77 ) ) ;
#142 = LOCAL_TIME ( 19, 24, 54.00000000000000000, #106 ) ;
#143 = CIRCLE ( 'NONE', #30, 5.250000000000000000 ) ;
#144 = EDGE_CURVE ( 'NONE', #58, #97, #238, .T. ) ;
#145 = PERSON ( 'NEURÈENÝ', 'NEURÈENÝ', 'NEURÈENÝ', ('NEURÈENÝ'), ('NEURÈENÝ'), ('NEURÈENÝ') ) ;
#146 = CALENDAR_DATE ( 2022, 7, 7 ) ;
#147 = DATE_TIME_ROLE ( 'creation_date' ) ;
#148 = PERSON_AND_ORGANIZATION ( #145, #105 ) ;
#149 = CARTESIAN_POINT ( 'NONE',  ( 8.000000000000000000, 9.797174393178825657E-16, 0.000000000000000000 ) ) ;
#150 = CALENDAR_DATE ( 2022, 7, 7 ) ;
#151 = CARTESIAN_POINT ( 'NONE',  ( 5.250000000000000000, 6.429395695523604153E-16, 105.0000000000000142 ) ) ;
#152 = EDGE_CURVE ( 'NONE', #103, #3, #250, .T. ) ;
#153 = EDGE_LOOP ( 'NONE', ( #195, #157 ) ) ;
#154 = ADVANCED_FACE ( 'NONE', ( #158 ), #96, .T. ) ;
#155 = PERSON_AND_ORGANIZATION_ROLE ( 'design_owner' ) ;
#156 = CYLINDRICAL_SURFACE ( 'NONE', #104, 5.250000000000000000 ) ;
#157 = ORIENTED_EDGE ( 'NONE', *, *, #9, .F. ) ;
#158 = FACE_OUTER_BOUND ( 'NONE', #204, .T. ) ;
#159 = CC_DESIGN_APPROVAL ( #161, ( #125 ) ) ;
#160 = VERTEX_POINT ( 'NONE', #149 ) ;
#161 = APPROVAL ( #214, 'NEURÈENÝ' ) ;
#162 = CARTESIAN_POINT ( 'NONE',  ( 0.000000000000000000, 0.000000000000000000, 5.000000000000000000 ) ) ;
#163 = CC_DESIGN_PERSON_AND_ORGANIZATION_ASSIGNMENT ( #111, #95, ( #125 ) ) ;
#164 = ADVANCED_FACE ( 'NONE', ( #59 ), #40, .F. ) ;
#165 = APPROVAL ( #91, 'NEURÈENÝ' ) ;
#166 = AXIS2_PLACEMENT_3D ( 'NONE', #73, #16, #176 ) ;
#167 = PERSON_AND_ORGANIZATION ( #145, #105 ) ;
#168 = APPROVAL_STATUS ( 'not_yet_approved' ) ;
#169 = DIRECTION ( 'NONE',  ( -0.000000000000000000, -0.000000000000000000, -1.000000000000000000 ) ) ;
#170 = DIRECTION ( 'NONE',  ( 1.000000000000000000, 0.000000000000000000, 0.000000000000000000 ) ) ;
#171 = CYLINDRICAL_SURFACE ( 'NONE', #117, 8.000000000000000000 ) ;
#172 = VECTOR ( 'NONE', #121, 1000.000000000000000 ) ;
#173 = LOCAL_TIME ( 19, 24, 54.00000000000000000, #87 ) ;
#174 = CARTESIAN_POINT ( 'NONE',  ( -5.250000000000000000, 0.000000000000000000, 105.0000000000000142 ) ) ;
#175 =( NAMED_UNIT ( * ) SI_UNIT ( $, .STERADIAN. ) SOLID_ANGLE_UNIT ( ) );
#176 = DIRECTION ( 'NONE',  ( 1.000000000000000000, 0.000000000000000000, -0.000000000000000000 ) ) ;
#177 = EDGE_LOOP ( 'NONE', ( #138, #6, #81, #224 ) ) ;
#178 = APPROVAL_ROLE ( '' ) ;
#179 = FACE_OUTER_BOUND ( 'NONE', #177, .T. ) ;
#180 = CARTESIAN_POINT ( 'NONE',  ( 5.250000000000000000, 6.429395695523604153E-16, 5.000000000000000000 ) ) ;
#181 = PRODUCT_RELATED_PRODUCT_CATEGORY ( 'detail', '', ( #86 ) ) ;
#182 = ADVANCED_FACE ( 'NONE', ( #240 ), #156, .T. ) ;
#183 = FACE_OUTER_BOUND ( 'NONE', #62, .T. ) ;
#184 = CIRCLE ( 'NONE', #65, 5.250000000000000000 ) ;
#185 = DIRECTION ( 'NONE',  ( 1.000000000000000000, 0.000000000000000000, -0.000000000000000000 ) ) ;
#186 = DESIGN_CONTEXT ( 'detailed design', #243, 'design' ) ;
#187 = CIRCLE ( 'NONE', #190, 8.000000000000000000 ) ;
#188 = DATE_AND_TIME ( #146, #173 ) ;
#189 = CARTESIAN_POINT ( 'NONE',  ( 0.000000000000000000, 0.000000000000000000, 0.000000000000000000 ) ) ;
#190 = AXIS2_PLACEMENT_3D ( 'NONE', #25, #61, #203 ) ;
#191 = DIRECTION ( 'NONE',  ( -1.000000000000000000, 0.000000000000000000, 0.000000000000000000 ) ) ;
#192 = CARTESIAN_POINT ( 'NONE',  ( -8.000000000000000000, 0.000000000000000000, 0.000000000000000000 ) ) ;
#193 = DIRECTION ( 'NONE',  ( 1.000000000000000000, 0.000000000000000000, -0.000000000000000000 ) ) ;
#194 = ADVANCED_FACE ( 'NONE', ( #179 ), #132, .T. ) ;
#195 = ORIENTED_EDGE ( 'NONE', *, *, #29, .F. ) ;
#196 = COORDINATED_UNIVERSAL_TIME_OFFSET ( 1, 0, .AHEAD. ) ;
#197 = FACE_OUTER_BOUND ( 'NONE', #201, .T. ) ;
#198 = ADVANCED_FACE ( 'NONE', ( #197 ), #19, .T. ) ;
#199 = ORIENTED_EDGE ( 'NONE', *, *, #245, .F. ) ;
#200 = CARTESIAN_POINT ( 'NONE',  ( 0.000000000000000000, 0.000000000000000000, 5.000000000000000000 ) ) ;
#201 = EDGE_LOOP ( 'NONE', ( #80, #122, #242, #94 ) ) ;
#202 = ORIENTED_EDGE ( 'NONE', *, *, #127, .F. ) ;
#203 = DIRECTION ( 'NONE',  ( 1.000000000000000000, 0.000000000000000000, 0.000000000000000000 ) ) ;
#204 = EDGE_LOOP ( 'NONE', ( #221, #101 ) ) ;
#205 = APPROVAL_PERSON_ORGANIZATION ( #131, #88, #178 ) ;
#206 = CC_DESIGN_PERSON_AND_ORGANIZATION_ASSIGNMENT ( #14, #155, ( #86 ) ) ;
#207 = EDGE_CURVE ( 'NONE', #124, #58, #102, .T. ) ;
#208 = CC_DESIGN_DATE_AND_TIME_ASSIGNMENT ( #134, #147, ( #21 ) ) ;
#209 = EDGE_CURVE ( 'NONE', #124, #42, #15, .T. ) ;
#210 = EDGE_CURVE ( 'NONE', #58, #124, #225, .T. ) ;
#211 = DIRECTION ( 'NONE',  ( -0.000000000000000000, -0.000000000000000000, -1.000000000000000000 ) ) ;
#212 = PERSON_AND_ORGANIZATION ( #145, #105 ) ;
#213 = DIRECTION ( 'NONE',  ( 0.000000000000000000, 0.000000000000000000, 1.000000000000000000 ) ) ;
#214 = APPROVAL_STATUS ( 'not_yet_approved' ) ;
#215 = CARTESIAN_POINT ( 'NONE',  ( 0.000000000000000000, 0.000000000000000000, 5.000000000000000000 ) ) ;
#216 = DIRECTION ( 'NONE',  ( 0.000000000000000000, 0.000000000000000000, 1.000000000000000000 ) ) ;
#217 = CARTESIAN_POINT ( 'NONE',  ( 0.000000000000000000, 0.000000000000000000, 5.000000000000000000 ) ) ;
#218 = DIRECTION ( 'NONE',  ( 1.000000000000000000, 0.000000000000000000, 0.000000000000000000 ) ) ;
#219 = VECTOR ( 'NONE', #76, 1000.000000000000000 ) ;
#220 = AXIS2_PLACEMENT_3D ( 'NONE', #133, #211, #191 ) ;
#221 = ORIENTED_EDGE ( 'NONE', *, *, #210, .T. ) ;
#222 = DIRECTION ( 'NONE',  ( 1.000000000000000000, 0.000000000000000000, 0.000000000000000000 ) ) ;
#223 = CARTESIAN_POINT ( 'NONE',  ( 8.000000000000000000, 9.797174393178825657E-16, 5.000000000000000000 ) ) ;
#224 = ORIENTED_EDGE ( 'NONE', *, *, #245, .T. ) ;
#225 = CIRCLE ( 'NONE', #39, 5.250000000000000000 ) ;
#226 = ADVANCED_FACE ( 'NONE', ( #34 ), #171, .T. ) ;
#227 = ADVANCED_BREP_SHAPE_REPRESENTATION ( 'c735', ( #228, #246 ), #51 ) ;
#228 = MANIFOLD_SOLID_BREP ( 'Pøidat vysunutím3', #71 ) ;
#229 = CIRCLE ( 'NONE', #126, 8.000000000000000000 ) ;
#230 = AXIS2_PLACEMENT_3D ( 'NONE', #215, #4, #36 ) ;
#231 = DATE_TIME_ROLE ( 'classification_date' ) ;
#232 = CARTESIAN_POINT ( 'NONE',  ( 0.000000000000000000, 0.000000000000000000, 105.0000000000000142 ) ) ;
#233 = PERSON_AND_ORGANIZATION ( #145, #105 ) ;
#234 = UNCERTAINTY_MEASURE_WITH_UNIT (LENGTH_MEASURE( 1.000000000000000082E-05 ), #237, 'distance_accuracy_value', 'NONE');
#235 = DIRECTION ( 'NONE',  ( 0.000000000000000000, 0.000000000000000000, 1.000000000000000000 ) ) ;
#236 = VERTEX_POINT ( 'NONE', #192 ) ;
#237 =( LENGTH_UNIT ( ) NAMED_UNIT ( * ) SI_UNIT ( .MILLI., .METRE. ) );
#238 = LINE ( 'NONE', #24, #219 ) ;
#239 = ORIENTED_EDGE ( 'NONE', *, *, #129, .F. ) ;
#240 = FACE_OUTER_BOUND ( 'NONE', #141, .T. ) ;
#241 = CC_DESIGN_APPROVAL ( #88, ( #21 ) ) ;
#242 = ORIENTED_EDGE ( 'NONE', *, *, #127, .T. ) ;
#243 = APPLICATION_CONTEXT ( 'configuration controlled 3d designs of mechanical parts and assemblies' ) ;
#244 = DIRECTION ( 'NONE',  ( 0.000000000000000000, 0.000000000000000000, 1.000000000000000000 ) ) ;
#245 = EDGE_CURVE ( 'NONE', #97, #42, #184, .T. ) ;
#246 = AXIS2_PLACEMENT_3D ( 'NONE', #189, #13, #170 ) ;
#247 = SHAPE_DEFINITION_REPRESENTATION ( #45, #227 ) ;
#248 = APPROVAL_DATE_TIME ( #31, #161 ) ;
#249 = DIRECTION ( 'NONE',  ( 0.000000000000000000, 0.000000000000000000, 1.000000000000000000 ) ) ;
#250 = CIRCLE ( 'NONE', #27, 8.000000000000000000 ) ;
#251 = COORDINATED_UNIVERSAL_TIME_OFFSET ( 1, 0, .AHEAD. ) ;
#252 = CARTESIAN_POINT ( 'NONE',  ( 0.000000000000000000, 0.000000000000000000, 5.000000000000000000 ) ) ;
#253 = CC_DESIGN_SECURITY_CLASSIFICATION ( #254, ( #125 ) ) ;
#254 = SECURITY_CLASSIFICATION ( '', '', #55 ) ;
#255 = CARTESIAN_POINT ( 'NONE',  ( -5.250000000000000000, 0.000000000000000000, 5.000000000000000000 ) ) ;
ENDSEC;
END-ISO-10303-21;
