ISO-10303-21;
HEADER;
FILE_DESCRIPTION (( 'STEP AP203' ),
    '1' );
FILE_NAME ('7184.STEP',
    '2023-02-13T14:22:59',
    ( '' ),
    ( '' ),
    'SwSTEP 2.0',
    'SolidWorks 2019',
    '' );
FILE_SCHEMA (( 'CONFIG_CONTROL_DESIGN' ));
ENDSEC;

DATA;
#1 = EDGE_CURVE ( 'NONE', #248, #154, #88, .T. ) ;
#2 = CARTESIAN_POINT ( 'NONE',  ( 0.000000000000000000, 0.000000000000000000, 5.000000000000000000 ) ) ;
#3 = PERSON_AND_ORGANIZATION ( #163, #44 ) ;
#4 = VECTOR ( 'NONE', #92, 1000.000000000000000 ) ;
#5 = DATE_AND_TIME ( #175, #125 ) ;
#6 = CARTESIAN_POINT ( 'NONE',  ( 0.000000000000000000, 0.000000000000000000, 0.000000000000000000 ) ) ;
#7 = PRODUCT_DEFINITION ( 'NEZNÁMÝ', '', #181, #28 ) ;
#8 = CALENDAR_DATE ( 2023, 13, 2 ) ;
#9 = FACE_OUTER_BOUND ( 'NONE', #78, .T. ) ;
#10 = PRODUCT_DEFINITION_SHAPE ( 'NONE', 'NONE',  #7 ) ;
#11 = DATE_AND_TIME ( #227, #210 ) ;
#12 = FACE_OUTER_BOUND ( 'NONE', #177, .T. ) ;
#13 = APPROVAL_DATE_TIME ( #251, #166 ) ;
#14 = ORIENTED_EDGE ( 'NONE', *, *, #71, .T. ) ;
#15 = EDGE_LOOP ( 'NONE', ( #231, #114, #134, #189 ) ) ;
#16 = DATE_AND_TIME ( #249, #190 ) ;
#17 = CIRCLE ( 'NONE', #156, 7.000000000000000000 ) ;
#18 = CARTESIAN_POINT ( 'NONE',  ( 4.000000000000000000, 4.898587196589412829E-16, 5.000000000000000000 ) ) ;
#19 = PLANE ( 'NONE',  #215 ) ;
#20 = LINE ( 'NONE', #107, #141 ) ;
#21 = DIRECTION ( 'NONE',  ( -0.000000000000000000, -0.000000000000000000, -1.000000000000000000 ) ) ;
#22 = APPROVAL_STATUS ( 'not_yet_approved' ) ;
#23 = COORDINATED_UNIVERSAL_TIME_OFFSET ( 1, 0, .AHEAD. ) ;
#24 = CC_DESIGN_PERSON_AND_ORGANIZATION_ASSIGNMENT ( #202, #118, ( #181 ) ) ;
#25 = EDGE_LOOP ( 'NONE', ( #104, #139, #120, #93 ) ) ;
#26 = PERSON_AND_ORGANIZATION_ROLE ( 'design_owner' ) ;
#27 = VERTEX_POINT ( 'NONE', #208 ) ;
#28 = DESIGN_CONTEXT ( 'detailed design', #191, 'design' ) ;
#29 = DATE_TIME_ROLE ( 'classification_date' ) ;
#30 = PLANE ( 'NONE',  #102 ) ;
#31 = APPROVAL ( #47, 'NEURÈENÝ' ) ;
#32 = CIRCLE ( 'NONE', #171, 7.000000000000000000 ) ;
#33 = PERSON_AND_ORGANIZATION ( #163, #44 ) ;
#34 = ORIENTED_EDGE ( 'NONE', *, *, #96, .F. ) ;
#35 = CC_DESIGN_APPROVAL ( #217, ( #7 ) ) ;
#36 = MANIFOLD_SOLID_BREP ( 'Pøidat vysunutím3', #179 ) ;
#37 = COORDINATED_UNIVERSAL_TIME_OFFSET ( 1, 0, .AHEAD. ) ;
#38 = ORIENTED_EDGE ( 'NONE', *, *, #178, .F. ) ;
#39 = AXIS2_PLACEMENT_3D ( 'NONE', #6, #146, #148 ) ;
#40 = DIRECTION ( 'NONE',  ( 0.000000000000000000, 0.000000000000000000, 1.000000000000000000 ) ) ;
#41 = ADVANCED_FACE ( 'NONE', ( #52 ), #236, .T. ) ;
#42 = AXIS2_PLACEMENT_3D ( 'NONE', #233, #165, #55 ) ;
#43 = CC_DESIGN_APPROVAL ( #166, ( #87 ) ) ;
#44 = ORGANIZATION ( 'NEURÈENÝ', 'NEURÈENÝ', '' ) ;
#45 = ADVANCED_FACE ( 'NONE', ( #235, #58 ), #30, .T. ) ;
#46 = DIRECTION ( 'NONE',  ( -0.000000000000000000, -0.000000000000000000, -1.000000000000000000 ) ) ;
#47 = APPROVAL_STATUS ( 'not_yet_approved' ) ;
#48 = EDGE_LOOP ( 'NONE', ( #187, #80 ) ) ;
#49 = AXIS2_PLACEMENT_3D ( 'NONE', #137, #101, #228 ) ;
#50 = ORIENTED_EDGE ( 'NONE', *, *, #109, .T. ) ;
#51 = SHAPE_DEFINITION_REPRESENTATION ( #10, #232 ) ;
#52 = FACE_OUTER_BOUND ( 'NONE', #15, .T. ) ;
#53 = PERSON_AND_ORGANIZATION ( #163, #44 ) ;
#54 = VECTOR ( 'NONE', #117, 1000.000000000000000 ) ;
#55 = DIRECTION ( 'NONE',  ( 1.000000000000000000, 0.000000000000000000, 0.000000000000000000 ) ) ;
#56 = APPROVAL_STATUS ( 'not_yet_approved' ) ;
#57 = CYLINDRICAL_SURFACE ( 'NONE', #213, 4.000000000000000000 ) ;
#58 = FACE_OUTER_BOUND ( 'NONE', #48, .T. ) ;
#59 = DIRECTION ( 'NONE',  ( 0.000000000000000000, 0.000000000000000000, 1.000000000000000000 ) ) ;
#60 = EDGE_CURVE ( 'NONE', #248, #27, #143, .T. ) ;
#61 = LOCAL_TIME ( 15, 22, 59.00000000000000000, #37 ) ;
#62 = CARTESIAN_POINT ( 'NONE',  ( 7.000000000000000000, 8.572527594031473190E-16, 5.000000000000000000 ) ) ;
#63 = DIRECTION ( 'NONE',  ( 1.000000000000000000, 0.000000000000000000, 0.000000000000000000 ) ) ;
#64 = ADVANCED_FACE ( 'NONE', ( #9 ), #185, .T. ) ;
#65 = DIRECTION ( 'NONE',  ( 1.000000000000000000, 0.000000000000000000, 0.000000000000000000 ) ) ;
#66 = CARTESIAN_POINT ( 'NONE',  ( -4.000000000000000000, 0.000000000000000000, 5.000000000000000000 ) ) ;
#67 = CC_DESIGN_DATE_AND_TIME_ASSIGNMENT ( #5, #221, ( #7 ) ) ;
#68 = EDGE_LOOP ( 'NONE', ( #224, #200 ) ) ;
#69 = DIRECTION ( 'NONE',  ( 0.000000000000000000, 0.000000000000000000, 1.000000000000000000 ) ) ;
#70 = CIRCLE ( 'NONE', #209, 4.000000000000000000 ) ;
#71 = EDGE_CURVE ( 'NONE', #204, #161, #252, .T. ) ;
#72 = PERSON_AND_ORGANIZATION ( #163, #44 ) ;
#73 = DIRECTION ( 'NONE',  ( 1.000000000000000000, 0.000000000000000000, 0.000000000000000000 ) ) ;
#74 = CARTESIAN_POINT ( 'NONE',  ( 0.000000000000000000, 0.000000000000000000, 5.000000000000000000 ) ) ;
#75 = ADVANCED_FACE ( 'NONE', ( #12 ), #57, .T. ) ;
#76 = PERSON_AND_ORGANIZATION_ROLE ( 'classification_officer' ) ;
#77 = APPROVAL_PERSON_ORGANIZATION ( #72, #31, #130 ) ;
#78 = EDGE_LOOP ( 'NONE', ( #116, #95 ) ) ;
#79 = COORDINATED_UNIVERSAL_TIME_OFFSET ( 1, 0, .AHEAD. ) ;
#80 = ORIENTED_EDGE ( 'NONE', *, *, #96, .T. ) ;
#81 = CC_DESIGN_PERSON_AND_ORGANIZATION_ASSIGNMENT ( #33, #230, ( #181 ) ) ;
#82 = APPROVAL_DATE_TIME ( #16, #31 ) ;
#83 = VERTEX_POINT ( 'NONE', #66 ) ;
#84 = CIRCLE ( 'NONE', #129, 4.000000000000000000 ) ;
#85 = APPROVAL_ROLE ( '' ) ;
#86 = CARTESIAN_POINT ( 'NONE',  ( 7.000000000000000000, 8.572527594031473190E-16, 5.000000000000000000 ) ) ;
#87 = SECURITY_CLASSIFICATION ( '', '', #183 ) ;
#88 = LINE ( 'NONE', #167, #220 ) ;
#89 = DIRECTION ( 'NONE',  ( 0.000000000000000000, 0.000000000000000000, 1.000000000000000000 ) ) ;
#90 = DIRECTION ( 'NONE',  ( 0.000000000000000000, 0.000000000000000000, 1.000000000000000000 ) ) ;
#91 = APPROVAL_PERSON_ORGANIZATION ( #115, #166, #85 ) ;
#92 = DIRECTION ( 'NONE',  ( -0.000000000000000000, -0.000000000000000000, -1.000000000000000000 ) ) ;
#93 = ORIENTED_EDGE ( 'NONE', *, *, #211, .T. ) ;
#94 = CARTESIAN_POINT ( 'NONE',  ( -7.000000000000000000, 0.000000000000000000, 0.000000000000000000 ) ) ;
#95 = ORIENTED_EDGE ( 'NONE', *, *, #60, .T. ) ;
#96 = EDGE_CURVE ( 'NONE', #204, #254, #238, .T. ) ;
#97 = PRODUCT_RELATED_PRODUCT_CATEGORY ( 'detail', '', ( #226 ) ) ;
#98 = EDGE_CURVE ( 'NONE', #83, #154, #84, .T. ) ;
#99 = CARTESIAN_POINT ( 'NONE',  ( 0.000000000000000000, 0.000000000000000000, 0.000000000000000000 ) ) ;
#100 = DIRECTION ( 'NONE',  ( 1.000000000000000000, 0.000000000000000000, 0.000000000000000000 ) ) ;
#101 = DIRECTION ( 'NONE',  ( 0.000000000000000000, 0.000000000000000000, 1.000000000000000000 ) ) ;
#102 = AXIS2_PLACEMENT_3D ( 'NONE', #168, #184, #106 ) ;
#103 = CARTESIAN_POINT ( 'NONE',  ( 0.000000000000000000, 0.000000000000000000, 200.0000000000000000 ) ) ;
#104 = ORIENTED_EDGE ( 'NONE', *, *, #71, .F. ) ;
#105 = EDGE_CURVE ( 'NONE', #254, #204, #17, .T. ) ;
#106 = DIRECTION ( 'NONE',  ( 1.000000000000000000, 0.000000000000000000, -0.000000000000000000 ) ) ;
#107 = CARTESIAN_POINT ( 'NONE',  ( -7.000000000000000000, 0.000000000000000000, 5.000000000000000000 ) ) ;
#108 = AXIS2_PLACEMENT_3D ( 'NONE', #124, #21, #216 ) ;
#109 = EDGE_CURVE ( 'NONE', #161, #243, #32, .T. ) ;
#110 = CYLINDRICAL_SURFACE ( 'NONE', #112, 7.000000000000000000 ) ;
#111 = AXIS2_PLACEMENT_3D ( 'NONE', #159, #40, #65 ) ;
#112 = AXIS2_PLACEMENT_3D ( 'NONE', #74, #46, #242 ) ;
#113 = COORDINATED_UNIVERSAL_TIME_OFFSET ( 1, 0, .AHEAD. ) ;
#114 = ORIENTED_EDGE ( 'NONE', *, *, #205, .F. ) ;
#115 = PERSON_AND_ORGANIZATION ( #163, #44 ) ;
#116 = ORIENTED_EDGE ( 'NONE', *, *, #205, .T. ) ;
#117 = DIRECTION ( 'NONE',  ( -0.000000000000000000, -0.000000000000000000, -1.000000000000000000 ) ) ;
#118 = PERSON_AND_ORGANIZATION_ROLE ( 'design_supplier' ) ;
#119 = AXIS2_PLACEMENT_3D ( 'NONE', #160, #69, #100 ) ;
#120 = ORIENTED_EDGE ( 'NONE', *, *, #178, .T. ) ;
#121 = CYLINDRICAL_SURFACE ( 'NONE', #108, 7.000000000000000000 ) ;
#122 = AXIS2_PLACEMENT_3D ( 'NONE', #99, #133, #73 ) ;
#123 = DIRECTION ( 'NONE',  ( 1.000000000000000000, 0.000000000000000000, 0.000000000000000000 ) ) ;
#124 = CARTESIAN_POINT ( 'NONE',  ( 0.000000000000000000, 0.000000000000000000, 5.000000000000000000 ) ) ;
#125 = LOCAL_TIME ( 15, 22, 59.00000000000000000, #23 ) ;
#126 = DATE_AND_TIME ( #8, #174 ) ;
#127 = APPLICATION_PROTOCOL_DEFINITION ( 'international standard', 'config_control_design', 1994, #128 ) ;
#128 = APPLICATION_CONTEXT ( 'configuration controlled 3d designs of mechanical parts and assemblies' ) ;
#129 = AXIS2_PLACEMENT_3D ( 'NONE', #142, #59, #123 ) ;
#130 = APPROVAL_ROLE ( '' ) ;
#131 = ORIENTED_EDGE ( 'NONE', *, *, #60, .F. ) ;
#132 = ORIENTED_EDGE ( 'NONE', *, *, #109, .F. ) ;
#133 = DIRECTION ( 'NONE',  ( 0.000000000000000000, 0.000000000000000000, 1.000000000000000000 ) ) ;
#134 = ORIENTED_EDGE ( 'NONE', *, *, #206, .T. ) ;
#135 = EDGE_LOOP ( 'NONE', ( #149, #132 ) ) ;
#136 = CC_DESIGN_PERSON_AND_ORGANIZATION_ASSIGNMENT ( #3, #246, ( #7 ) ) ;
#137 = CARTESIAN_POINT ( 'NONE',  ( 0.000000000000000000, 0.000000000000000000, 200.0000000000000000 ) ) ;
#138 = DIRECTION ( 'NONE',  ( -0.000000000000000000, -0.000000000000000000, -1.000000000000000000 ) ) ;
#139 = ORIENTED_EDGE ( 'NONE', *, *, #105, .F. ) ;
#140 = EDGE_CURVE ( 'NONE', #154, #83, #70, .T. ) ;
#141 = VECTOR ( 'NONE', #194, 1000.000000000000000 ) ;
#142 = CARTESIAN_POINT ( 'NONE',  ( 0.000000000000000000, 0.000000000000000000, 5.000000000000000000 ) ) ;
#143 = CIRCLE ( 'NONE', #42, 4.000000000000000000 ) ;
#144 =( LENGTH_UNIT ( ) NAMED_UNIT ( * ) SI_UNIT ( .MILLI., .METRE. ) );
#145 = ORIENTED_EDGE ( 'NONE', *, *, #140, .T. ) ;
#146 = DIRECTION ( 'NONE',  ( 0.000000000000000000, 0.000000000000000000, 1.000000000000000000 ) ) ;
#147 = AXIS2_PLACEMENT_3D ( 'NONE', #152, #153, #203 ) ;
#148 = DIRECTION ( 'NONE',  ( 1.000000000000000000, 0.000000000000000000, 0.000000000000000000 ) ) ;
#149 = ORIENTED_EDGE ( 'NONE', *, *, #211, .F. ) ;
#150 = APPROVAL_PERSON_ORGANIZATION ( #162, #217, #244 ) ;
#151 = CC_DESIGN_DATE_AND_TIME_ASSIGNMENT ( #11, #29, ( #87 ) ) ;
#152 = CARTESIAN_POINT ( 'NONE',  ( 0.000000000000000000, 0.000000000000000000, 200.0000000000000000 ) ) ;
#153 = DIRECTION ( 'NONE',  ( -0.000000000000000000, -0.000000000000000000, -1.000000000000000000 ) ) ;
#154 = VERTEX_POINT ( 'NONE', #18 ) ;
#155 = CARTESIAN_POINT ( 'NONE',  ( 7.000000000000000000, 8.572527594031473190E-16, 0.000000000000000000 ) ) ;
#156 = AXIS2_PLACEMENT_3D ( 'NONE', #195, #90, #63 ) ;
#157 = DIRECTION ( 'NONE',  ( 1.000000000000000000, 0.000000000000000000, -0.000000000000000000 ) ) ;
#158 = FACE_OUTER_BOUND ( 'NONE', #245, .T. ) ;
#159 = CARTESIAN_POINT ( 'NONE',  ( 0.000000000000000000, 0.000000000000000000, 5.000000000000000000 ) ) ;
#160 = CARTESIAN_POINT ( 'NONE',  ( 0.000000000000000000, 0.000000000000000000, 200.0000000000000000 ) ) ;
#161 = VERTEX_POINT ( 'NONE', #155 ) ;
#162 = PERSON_AND_ORGANIZATION ( #163, #44 ) ;
#163 = PERSON ( 'NEURÈENÝ', 'NEURÈENÝ', 'NEURÈENÝ', ('NEURÈENÝ'), ('NEURÈENÝ'), ('NEURÈENÝ') ) ;
#164 = FACE_OUTER_BOUND ( 'NONE', #25, .T. ) ;
#165 = DIRECTION ( 'NONE',  ( 0.000000000000000000, 0.000000000000000000, 1.000000000000000000 ) ) ;
#166 = APPROVAL ( #56, 'NEURÈENÝ' ) ;
#167 = CARTESIAN_POINT ( 'NONE',  ( 4.000000000000000000, 4.898587196589412829E-16, 200.0000000000000000 ) ) ;
#168 = CARTESIAN_POINT ( 'NONE',  ( 0.000000000000000000, 0.000000000000000000, 5.000000000000000000 ) ) ;
#169 = ORIENTED_EDGE ( 'NONE', *, *, #206, .F. ) ;
#170 = CARTESIAN_POINT ( 'NONE',  ( 0.000000000000000000, 0.000000000000000000, 0.000000000000000000 ) ) ;
#171 = AXIS2_PLACEMENT_3D ( 'NONE', #241, #212, #214 ) ;
#172 = ADVANCED_FACE ( 'NONE', ( #158 ), #121, .T. ) ;
#173 = APPROVAL_DATE_TIME ( #126, #217 ) ;
#174 = LOCAL_TIME ( 15, 22, 59.00000000000000000, #113 ) ;
#175 = CALENDAR_DATE ( 2023, 13, 2 ) ;
#176 = APPLICATION_PROTOCOL_DEFINITION ( 'international standard', 'config_control_design', 1994, #191 ) ;
#177 = EDGE_LOOP ( 'NONE', ( #131, #201, #145, #169 ) ) ;
#178 = EDGE_CURVE ( 'NONE', #254, #243, #20, .T. ) ;
#179 = CLOSED_SHELL ( 'NONE', ( #75, #172, #239, #45, #192, #41, #64 ) ) ;
#180 = CARTESIAN_POINT ( 'NONE',  ( -7.000000000000000000, 0.000000000000000000, 5.000000000000000000 ) ) ;
#181 = PRODUCT_DEFINITION_FORMATION_WITH_SPECIFIED_SOURCE ( 'LIBOVOLNÝ', '', #226, .NOT_KNOWN. ) ;
#182 = PERSON_AND_ORGANIZATION ( #163, #44 ) ;
#183 = SECURITY_CLASSIFICATION_LEVEL ( 'unclassified' ) ;
#184 = DIRECTION ( 'NONE',  ( 0.000000000000000000, 0.000000000000000000, 1.000000000000000000 ) ) ;
#185 = PLANE ( 'NONE',  #49 ) ;
#186 = COORDINATED_UNIVERSAL_TIME_OFFSET ( 1, 0, .AHEAD. ) ;
#187 = ORIENTED_EDGE ( 'NONE', *, *, #105, .T. ) ;
#188 = CALENDAR_DATE ( 2023, 13, 2 ) ;
#189 = ORIENTED_EDGE ( 'NONE', *, *, #98, .T. ) ;
#190 = LOCAL_TIME ( 15, 22, 59.00000000000000000, #186 ) ;
#191 = APPLICATION_CONTEXT ( 'configuration controlled 3d designs of mechanical parts and assemblies' ) ;
#192 = ADVANCED_FACE ( 'NONE', ( #237 ), #19, .F. ) ;
#193 = CC_DESIGN_PERSON_AND_ORGANIZATION_ASSIGNMENT ( #182, #26, ( #226 ) ) ;
#194 = DIRECTION ( 'NONE',  ( -0.000000000000000000, -0.000000000000000000, -1.000000000000000000 ) ) ;
#195 = CARTESIAN_POINT ( 'NONE',  ( 0.000000000000000000, 0.000000000000000000, 5.000000000000000000 ) ) ;
#196 = DIRECTION ( 'NONE',  ( 1.000000000000000000, 0.000000000000000000, 0.000000000000000000 ) ) ;
#197 = CARTESIAN_POINT ( 'NONE',  ( -4.000000000000000000, 0.000000000000000000, 200.0000000000000000 ) ) ;
#198 =( GEOMETRIC_REPRESENTATION_CONTEXT ( 3 ) GLOBAL_UNCERTAINTY_ASSIGNED_CONTEXT ( ( #229 ) ) GLOBAL_UNIT_ASSIGNED_CONTEXT ( ( #144, #219, #247 ) ) REPRESENTATION_CONTEXT ( 'NONE', 'WORKASPACE' ) );
#199 = LINE ( 'NONE', #197, #4 ) ;
#200 = ORIENTED_EDGE ( 'NONE', *, *, #140, .F. ) ;
#201 = ORIENTED_EDGE ( 'NONE', *, *, #1, .T. ) ;
#202 = PERSON_AND_ORGANIZATION ( #163, #44 ) ;
#203 = DIRECTION ( 'NONE',  ( -1.000000000000000000, 0.000000000000000000, 0.000000000000000000 ) ) ;
#204 = VERTEX_POINT ( 'NONE', #62 ) ;
#205 = EDGE_CURVE ( 'NONE', #27, #248, #234, .T. ) ;
#206 = EDGE_CURVE ( 'NONE', #27, #83, #199, .T. ) ;
#207 = DIRECTION ( 'NONE',  ( -1.000000000000000000, 0.000000000000000000, 0.000000000000000000 ) ) ;
#208 = CARTESIAN_POINT ( 'NONE',  ( -4.000000000000000000, 0.000000000000000000, 200.0000000000000000 ) ) ;
#209 = AXIS2_PLACEMENT_3D ( 'NONE', #2, #240, #196 ) ;
#210 = LOCAL_TIME ( 15, 22, 59.00000000000000000, #79 ) ;
#211 = EDGE_CURVE ( 'NONE', #243, #161, #222, .T. ) ;
#212 = DIRECTION ( 'NONE',  ( 0.000000000000000000, 0.000000000000000000, 1.000000000000000000 ) ) ;
#213 = AXIS2_PLACEMENT_3D ( 'NONE', #103, #138, #207 ) ;
#214 = DIRECTION ( 'NONE',  ( 1.000000000000000000, 0.000000000000000000, 0.000000000000000000 ) ) ;
#215 = AXIS2_PLACEMENT_3D ( 'NONE', #170, #89, #157 ) ;
#216 = DIRECTION ( 'NONE',  ( -1.000000000000000000, 0.000000000000000000, 0.000000000000000000 ) ) ;
#217 = APPROVAL ( #22, 'NEURÈENÝ' ) ;
#218 = CC_DESIGN_PERSON_AND_ORGANIZATION_ASSIGNMENT ( #53, #76, ( #87 ) ) ;
#219 =( NAMED_UNIT ( * ) PLANE_ANGLE_UNIT ( ) SI_UNIT ( $, .RADIAN. ) );
#220 = VECTOR ( 'NONE', #250, 1000.000000000000000 ) ;
#221 = DATE_TIME_ROLE ( 'creation_date' ) ;
#222 = CIRCLE ( 'NONE', #39, 7.000000000000000000 ) ;
#223 = CARTESIAN_POINT ( 'NONE',  ( 4.000000000000000000, 4.898587196589412829E-16, 200.0000000000000000 ) ) ;
#224 = ORIENTED_EDGE ( 'NONE', *, *, #98, .F. ) ;
#225 = MECHANICAL_CONTEXT ( 'NONE', #128, 'mechanical' ) ;
#226 = PRODUCT ( '7184', '7184', '', ( #225 ) ) ;
#227 = CALENDAR_DATE ( 2023, 13, 2 ) ;
#228 = DIRECTION ( 'NONE',  ( 1.000000000000000000, 0.000000000000000000, -0.000000000000000000 ) ) ;
#229 = UNCERTAINTY_MEASURE_WITH_UNIT (LENGTH_MEASURE( 1.000000000000000082E-05 ), #144, 'distance_accuracy_value', 'NONE');
#230 = PERSON_AND_ORGANIZATION_ROLE ( 'creator' ) ;
#231 = ORIENTED_EDGE ( 'NONE', *, *, #1, .F. ) ;
#232 = ADVANCED_BREP_SHAPE_REPRESENTATION ( '7184', ( #36, #122 ), #198 ) ;
#233 = CARTESIAN_POINT ( 'NONE',  ( 0.000000000000000000, 0.000000000000000000, 200.0000000000000000 ) ) ;
#234 = CIRCLE ( 'NONE', #119, 4.000000000000000000 ) ;
#235 = FACE_BOUND ( 'NONE', #68, .T. ) ;
#236 = CYLINDRICAL_SURFACE ( 'NONE', #147, 4.000000000000000000 ) ;
#237 = FACE_OUTER_BOUND ( 'NONE', #135, .T. ) ;
#238 = CIRCLE ( 'NONE', #111, 7.000000000000000000 ) ;
#239 = ADVANCED_FACE ( 'NONE', ( #164 ), #110, .T. ) ;
#240 = DIRECTION ( 'NONE',  ( 0.000000000000000000, 0.000000000000000000, 1.000000000000000000 ) ) ;
#241 = CARTESIAN_POINT ( 'NONE',  ( 0.000000000000000000, 0.000000000000000000, 0.000000000000000000 ) ) ;
#242 = DIRECTION ( 'NONE',  ( -1.000000000000000000, 0.000000000000000000, 0.000000000000000000 ) ) ;
#243 = VERTEX_POINT ( 'NONE', #94 ) ;
#244 = APPROVAL_ROLE ( '' ) ;
#245 = EDGE_LOOP ( 'NONE', ( #34, #14, #50, #38 ) ) ;
#246 = PERSON_AND_ORGANIZATION_ROLE ( 'creator' ) ;
#247 =( NAMED_UNIT ( * ) SI_UNIT ( $, .STERADIAN. ) SOLID_ANGLE_UNIT ( ) );
#248 = VERTEX_POINT ( 'NONE', #223 ) ;
#249 = CALENDAR_DATE ( 2023, 13, 2 ) ;
#250 = DIRECTION ( 'NONE',  ( -0.000000000000000000, -0.000000000000000000, -1.000000000000000000 ) ) ;
#251 = DATE_AND_TIME ( #188, #61 ) ;
#252 = LINE ( 'NONE', #86, #54 ) ;
#253 = CC_DESIGN_APPROVAL ( #31, ( #181 ) ) ;
#254 = VERTEX_POINT ( 'NONE', #180 ) ;
#255 = CC_DESIGN_SECURITY_CLASSIFICATION ( #87, ( #181 ) ) ;
ENDSEC;
END-ISO-10303-21;
