ISO-10303-21;
HEADER;
FILE_DESCRIPTION (( 'STEP AP203' ),
    '1' );
FILE_NAME ('7046.STEP',
    '2022-07-07T17:40:01',
    ( '' ),
    ( '' ),
    'SwSTEP 2.0',
    'SolidWorks 2019',
    '' );
FILE_SCHEMA (( 'CONFIG_CONTROL_DESIGN' ));
ENDSEC;

DATA;
#1 = VERTEX_POINT ( 'NONE', #135 ) ;
#2 = EDGE_CURVE ( 'NONE', #221, #182, #68, .T. ) ;
#3 = ORIENTED_EDGE ( 'NONE', *, *, #93, .F. ) ;
#4 = CC_DESIGN_APPROVAL ( #81, ( #72 ) ) ;
#5 = ORIENTED_EDGE ( 'NONE', *, *, #240, .F. ) ;
#6 = CARTESIAN_POINT ( 'NONE',  ( 0.000000000000000000, 0.000000000000000000, 5.000000000000000000 ) ) ;
#7 = VECTOR ( 'NONE', #92, 1000.000000000000000 ) ;
#8 = APPLICATION_CONTEXT ( 'configuration controlled 3d designs of mechanical parts and assemblies' ) ;
#9 = PERSON_AND_ORGANIZATION ( #160, #156 ) ;
#10 = PLANE ( 'NONE',  #15 ) ;
#11 = COORDINATED_UNIVERSAL_TIME_OFFSET ( 1, 0, .AHEAD. ) ;
#12 = PERSON_AND_ORGANIZATION ( #160, #156 ) ;
#13 = CARTESIAN_POINT ( 'NONE',  ( -6.000000000000000888, 0.000000000000000000, 5.000000000000000000 ) ) ;
#14 = CARTESIAN_POINT ( 'NONE',  ( 0.000000000000000000, 0.000000000000000000, 5.000000000000000000 ) ) ;
#15 = AXIS2_PLACEMENT_3D ( 'NONE', #246, #67, #141 ) ;
#16 = PERSON_AND_ORGANIZATION ( #160, #156 ) ;
#17 = ADVANCED_FACE ( 'NONE', ( #39 ), #58, .T. ) ;
#18 = ORIENTED_EDGE ( 'NONE', *, *, #90, .T. ) ;
#19 = DIRECTION ( 'NONE',  ( 0.000000000000000000, 0.000000000000000000, 1.000000000000000000 ) ) ;
#20 = ORIENTED_EDGE ( 'NONE', *, *, #145, .F. ) ;
#21 = ORIENTED_EDGE ( 'NONE', *, *, #126, .T. ) ;
#22 = DIRECTION ( 'NONE',  ( 0.000000000000000000, 0.000000000000000000, 1.000000000000000000 ) ) ;
#23 = ORIENTED_EDGE ( 'NONE', *, *, #121, .T. ) ;
#24 = DATE_AND_TIME ( #69, #231 ) ;
#25 = COORDINATED_UNIVERSAL_TIME_OFFSET ( 1, 0, .AHEAD. ) ;
#26 = CARTESIAN_POINT ( 'NONE',  ( 6.000000000000000888, 7.347880794884120722E-16, 5.000000000000000000 ) ) ;
#27 = EDGE_CURVE ( 'NONE', #219, #1, #101, .T. ) ;
#28 = PERSON_AND_ORGANIZATION ( #160, #156 ) ;
#29 = CIRCLE ( 'NONE', #59, 6.000000000000000888 ) ;
#30 = CC_DESIGN_PERSON_AND_ORGANIZATION_ASSIGNMENT ( #28, #169, ( #207 ) ) ;
#31 = DIRECTION ( 'NONE',  ( 0.000000000000000000, 0.000000000000000000, 1.000000000000000000 ) ) ;
#32 = UNCERTAINTY_MEASURE_WITH_UNIT (LENGTH_MEASURE( 1.000000000000000082E-05 ), #50, 'distance_accuracy_value', 'NONE');
#33 = CYLINDRICAL_SURFACE ( 'NONE', #211, 6.000000000000000888 ) ;
#34 = AXIS2_PLACEMENT_3D ( 'NONE', #14, #173, #128 ) ;
#35 = EDGE_CURVE ( 'NONE', #1, #200, #107, .T. ) ;
#36 = CALENDAR_DATE ( 2022, 7, 7 ) ;
#37 = DIRECTION ( 'NONE',  ( 0.000000000000000000, 0.000000000000000000, 1.000000000000000000 ) ) ;
#38 = CARTESIAN_POINT ( 'NONE',  ( 0.000000000000000000, 0.000000000000000000, 105.0000000000000142 ) ) ;
#39 = FACE_OUTER_BOUND ( 'NONE', #61, .T. ) ;
#40 = ADVANCED_FACE ( 'NONE', ( #41 ), #153, .T. ) ;
#41 = FACE_OUTER_BOUND ( 'NONE', #63, .T. ) ;
#42 = CALENDAR_DATE ( 2022, 7, 7 ) ;
#43 = ORIENTED_EDGE ( 'NONE', *, *, #93, .T. ) ;
#44 = DIRECTION ( 'NONE',  ( -0.000000000000000000, -0.000000000000000000, -1.000000000000000000 ) ) ;
#45 = PERSON_AND_ORGANIZATION_ROLE ( 'classification_officer' ) ;
#46 = LINE ( 'NONE', #26, #143 ) ;
#47 = PERSON_AND_ORGANIZATION ( #160, #156 ) ;
#48 = AXIS2_PLACEMENT_3D ( 'NONE', #161, #37, #139 ) ;
#49 = LOCAL_TIME ( 19, 40, 1.000000000000000000, #25 ) ;
#50 =( LENGTH_UNIT ( ) NAMED_UNIT ( * ) SI_UNIT ( .MILLI., .METRE. ) );
#51 = DIRECTION ( 'NONE',  ( -1.000000000000000000, 0.000000000000000000, 0.000000000000000000 ) ) ;
#52 = CC_DESIGN_APPROVAL ( #209, ( #134 ) ) ;
#53 = CARTESIAN_POINT ( 'NONE',  ( 0.000000000000000000, 0.000000000000000000, 105.0000000000000142 ) ) ;
#54 = APPLICATION_PROTOCOL_DEFINITION ( 'international standard', 'config_control_design', 1994, #8 ) ;
#55 = MANIFOLD_SOLID_BREP ( 'Pøidat vysunutím3', #185 ) ;
#56 = PERSON_AND_ORGANIZATION_ROLE ( 'creator' ) ;
#57 = PLANE ( 'NONE',  #48 ) ;
#58 = CYLINDRICAL_SURFACE ( 'NONE', #149, 3.100000000000000089 ) ;
#59 = AXIS2_PLACEMENT_3D ( 'NONE', #148, #31, #110 ) ;
#60 = APPROVAL_PERSON_ORGANIZATION ( #9, #209, #208 ) ;
#61 = EDGE_LOOP ( 'NONE', ( #177, #78, #154, #3 ) ) ;
#62 = DIRECTION ( 'NONE',  ( 1.000000000000000000, 0.000000000000000000, 0.000000000000000000 ) ) ;
#63 = EDGE_LOOP ( 'NONE', ( #119, #5, #43, #18 ) ) ;
#64 = AXIS2_PLACEMENT_3D ( 'NONE', #218, #122, #96 ) ;
#65 = CARTESIAN_POINT ( 'NONE',  ( -3.100000000000000089, 0.000000000000000000, 105.0000000000000142 ) ) ;
#66 = CIRCLE ( 'NONE', #195, 3.100000000000000089 ) ;
#67 = DIRECTION ( 'NONE',  ( 0.000000000000000000, 0.000000000000000000, 1.000000000000000000 ) ) ;
#68 = CIRCLE ( 'NONE', #89, 6.000000000000000888 ) ;
#69 = CALENDAR_DATE ( 2022, 7, 7 ) ;
#70 = PERSON_AND_ORGANIZATION ( #160, #156 ) ;
#71 = CIRCLE ( 'NONE', #133, 3.100000000000000089 ) ;
#72 = PRODUCT_DEFINITION ( 'NEZNÁMÝ', '', #207, #165 ) ;
#73 = DIRECTION ( 'NONE',  ( -0.000000000000000000, -0.000000000000000000, -1.000000000000000000 ) ) ;
#74 = DIRECTION ( 'NONE',  ( -1.000000000000000000, 0.000000000000000000, 0.000000000000000000 ) ) ;
#75 = DIRECTION ( 'NONE',  ( 0.000000000000000000, 0.000000000000000000, 1.000000000000000000 ) ) ;
#76 = APPROVAL_ROLE ( '' ) ;
#77 = FACE_OUTER_BOUND ( 'NONE', #79, .T. ) ;
#78 = ORIENTED_EDGE ( 'NONE', *, *, #27, .T. ) ;
#79 = EDGE_LOOP ( 'NONE', ( #155, #204 ) ) ;
#80 = DIRECTION ( 'NONE',  ( -0.000000000000000000, -0.000000000000000000, -1.000000000000000000 ) ) ;
#81 = APPROVAL ( #152, 'NEURÈENÝ' ) ;
#82 = VERTEX_POINT ( 'NONE', #176 ) ;
#83 = LINE ( 'NONE', #65, #162 ) ;
#84 =( GEOMETRIC_REPRESENTATION_CONTEXT ( 3 ) GLOBAL_UNCERTAINTY_ASSIGNED_CONTEXT ( ( #32 ) ) GLOBAL_UNIT_ASSIGNED_CONTEXT ( ( #50, #189, #172 ) ) REPRESENTATION_CONTEXT ( 'NONE', 'WORKASPACE' ) );
#85 = CARTESIAN_POINT ( 'NONE',  ( 0.000000000000000000, 0.000000000000000000, 105.0000000000000142 ) ) ;
#86 = SHAPE_DEFINITION_REPRESENTATION ( #249, #245 ) ;
#87 = ADVANCED_FACE ( 'NONE', ( #203, #183 ), #115, .T. ) ;
#88 = APPROVAL_STATUS ( 'not_yet_approved' ) ;
#89 = AXIS2_PLACEMENT_3D ( 'NONE', #97, #19, #238 ) ;
#90 = EDGE_CURVE ( 'NONE', #200, #1, #94, .T. ) ;
#91 = CARTESIAN_POINT ( 'NONE',  ( 0.000000000000000000, 0.000000000000000000, 5.000000000000000000 ) ) ;
#92 = DIRECTION ( 'NONE',  ( -0.000000000000000000, -0.000000000000000000, -1.000000000000000000 ) ) ;
#93 = EDGE_CURVE ( 'NONE', #82, #200, #83, .T. ) ;
#94 = CIRCLE ( 'NONE', #163, 3.100000000000000089 ) ;
#95 = DIRECTION ( 'NONE',  ( 0.000000000000000000, 0.000000000000000000, 1.000000000000000000 ) ) ;
#96 = DIRECTION ( 'NONE',  ( -1.000000000000000000, 0.000000000000000000, 0.000000000000000000 ) ) ;
#97 = CARTESIAN_POINT ( 'NONE',  ( 0.000000000000000000, 0.000000000000000000, 5.000000000000000000 ) ) ;
#98 = COORDINATED_UNIVERSAL_TIME_OFFSET ( 1, 0, .AHEAD. ) ;
#99 = DIRECTION ( 'NONE',  ( 1.000000000000000000, 0.000000000000000000, 0.000000000000000000 ) ) ;
#100 = VERTEX_POINT ( 'NONE', #237 ) ;
#101 = LINE ( 'NONE', #180, #223 ) ;
#102 = ORIENTED_EDGE ( 'NONE', *, *, #2, .F. ) ;
#103 = ORIENTED_EDGE ( 'NONE', *, *, #126, .F. ) ;
#104 = ORIENTED_EDGE ( 'NONE', *, *, #240, .T. ) ;
#105 = APPROVAL_STATUS ( 'not_yet_approved' ) ;
#106 = DIRECTION ( 'NONE',  ( -0.000000000000000000, -0.000000000000000000, -1.000000000000000000 ) ) ;
#107 = CIRCLE ( 'NONE', #137, 3.100000000000000089 ) ;
#108 = CALENDAR_DATE ( 2022, 7, 7 ) ;
#109 = LOCAL_TIME ( 19, 40, 1.000000000000000000, #98 ) ;
#110 = DIRECTION ( 'NONE',  ( 1.000000000000000000, 0.000000000000000000, 0.000000000000000000 ) ) ;
#111 = DIRECTION ( 'NONE',  ( -0.000000000000000000, -0.000000000000000000, -1.000000000000000000 ) ) ;
#112 = PERSON_AND_ORGANIZATION ( #160, #156 ) ;
#113 = AXIS2_PLACEMENT_3D ( 'NONE', #224, #22, #216 ) ;
#114 = DATE_AND_TIME ( #36, #164 ) ;
#115 = PLANE ( 'NONE',  #175 ) ;
#116 = ORIENTED_EDGE ( 'NONE', *, *, #2, .T. ) ;
#117 = ADVANCED_FACE ( 'NONE', ( #77 ), #57, .F. ) ;
#118 = DIRECTION ( 'NONE',  ( -0.000000000000000000, -0.000000000000000000, -1.000000000000000000 ) ) ;
#119 = ORIENTED_EDGE ( 'NONE', *, *, #27, .F. ) ;
#120 = ORIENTED_EDGE ( 'NONE', *, *, #90, .F. ) ;
#121 = EDGE_CURVE ( 'NONE', #239, #100, #230, .T. ) ;
#122 = DIRECTION ( 'NONE',  ( -0.000000000000000000, -0.000000000000000000, -1.000000000000000000 ) ) ;
#123 = APPROVAL_DATE_TIME ( #24, #209 ) ;
#124 = CARTESIAN_POINT ( 'NONE',  ( 6.000000000000000888, 7.347880794884120722E-16, 0.000000000000000000 ) ) ;
#125 = COORDINATED_UNIVERSAL_TIME_OFFSET ( 1, 0, .AHEAD. ) ;
#126 = EDGE_CURVE ( 'NONE', #221, #100, #150, .T. ) ;
#127 = CYLINDRICAL_SURFACE ( 'NONE', #170, 6.000000000000000888 ) ;
#128 = DIRECTION ( 'NONE',  ( 1.000000000000000000, 0.000000000000000000, 0.000000000000000000 ) ) ;
#129 = MECHANICAL_CONTEXT ( 'NONE', #8, 'mechanical' ) ;
#130 = COORDINATED_UNIVERSAL_TIME_OFFSET ( 1, 0, .AHEAD. ) ;
#131 = CARTESIAN_POINT ( 'NONE',  ( 0.000000000000000000, 0.000000000000000000, 5.000000000000000000 ) ) ;
#132 = ORIENTED_EDGE ( 'NONE', *, *, #244, .T. ) ;
#133 = AXIS2_PLACEMENT_3D ( 'NONE', #53, #95, #250 ) ;
#134 = SECURITY_CLASSIFICATION ( '', '', #229 ) ;
#135 = CARTESIAN_POINT ( 'NONE',  ( 3.100000000000000089, 3.796405077356794918E-16, 5.000000000000000000 ) ) ;
#136 = EDGE_LOOP ( 'NONE', ( #116, #159 ) ) ;
#137 = AXIS2_PLACEMENT_3D ( 'NONE', #157, #241, #62 ) ;
#138 = EDGE_LOOP ( 'NONE', ( #104, #254 ) ) ;
#139 = DIRECTION ( 'NONE',  ( 1.000000000000000000, 0.000000000000000000, -0.000000000000000000 ) ) ;
#140 = DATE_AND_TIME ( #42, #49 ) ;
#141 = DIRECTION ( 'NONE',  ( 1.000000000000000000, 0.000000000000000000, -0.000000000000000000 ) ) ;
#142 = CC_DESIGN_DATE_AND_TIME_ASSIGNMENT ( #114, #255, ( #72 ) ) ;
#143 = VECTOR ( 'NONE', #106, 1000.000000000000000 ) ;
#144 = PERSON_AND_ORGANIZATION_ROLE ( 'design_supplier' ) ;
#145 = EDGE_CURVE ( 'NONE', #182, #221, #146, .T. ) ;
#146 = CIRCLE ( 'NONE', #34, 6.000000000000000888 ) ;
#147 = PERSON_AND_ORGANIZATION_ROLE ( 'design_owner' ) ;
#148 = CARTESIAN_POINT ( 'NONE',  ( 0.000000000000000000, 0.000000000000000000, 0.000000000000000000 ) ) ;
#149 = AXIS2_PLACEMENT_3D ( 'NONE', #38, #118, #199 ) ;
#150 = LINE ( 'NONE', #13, #7 ) ;
#151 = DIRECTION ( 'NONE',  ( 1.000000000000000000, 0.000000000000000000, 0.000000000000000000 ) ) ;
#152 = APPROVAL_STATUS ( 'not_yet_approved' ) ;
#153 = CYLINDRICAL_SURFACE ( 'NONE', #64, 3.100000000000000089 ) ;
#154 = ORIENTED_EDGE ( 'NONE', *, *, #35, .T. ) ;
#155 = ORIENTED_EDGE ( 'NONE', *, *, #232, .F. ) ;
#156 = ORGANIZATION ( 'NEURÈENÝ', 'NEURÈENÝ', '' ) ;
#157 = CARTESIAN_POINT ( 'NONE',  ( 0.000000000000000000, 0.000000000000000000, 5.000000000000000000 ) ) ;
#158 = ADVANCED_FACE ( 'NONE', ( #191 ), #33, .T. ) ;
#159 = ORIENTED_EDGE ( 'NONE', *, *, #145, .T. ) ;
#160 = PERSON ( 'NEURÈENÝ', 'NEURÈENÝ', 'NEURÈENÝ', ('NEURÈENÝ'), ('NEURÈENÝ'), ('NEURÈENÝ') ) ;
#161 = CARTESIAN_POINT ( 'NONE',  ( 0.000000000000000000, 0.000000000000000000, 0.000000000000000000 ) ) ;
#162 = VECTOR ( 'NONE', #44, 1000.000000000000000 ) ;
#163 = AXIS2_PLACEMENT_3D ( 'NONE', #6, #197, #99 ) ;
#164 = LOCAL_TIME ( 19, 40, 1.000000000000000000, #130 ) ;
#165 = DESIGN_CONTEXT ( 'detailed design', #181, 'design' ) ;
#166 = CC_DESIGN_PERSON_AND_ORGANIZATION_ASSIGNMENT ( #112, #147, ( #214 ) ) ;
#167 = DIRECTION ( 'NONE',  ( 0.000000000000000000, 0.000000000000000000, 1.000000000000000000 ) ) ;
#168 = APPROVAL_PERSON_ORGANIZATION ( #12, #193, #247 ) ;
#169 = PERSON_AND_ORGANIZATION_ROLE ( 'creator' ) ;
#170 = AXIS2_PLACEMENT_3D ( 'NONE', #91, #73, #51 ) ;
#171 = LOCAL_TIME ( 19, 40, 1.000000000000000000, #125 ) ;
#172 =( NAMED_UNIT ( * ) SI_UNIT ( $, .STERADIAN. ) SOLID_ANGLE_UNIT ( ) );
#173 = DIRECTION ( 'NONE',  ( 0.000000000000000000, 0.000000000000000000, 1.000000000000000000 ) ) ;
#174 = CARTESIAN_POINT ( 'NONE',  ( -3.100000000000000089, 0.000000000000000000, 5.000000000000000000 ) ) ;
#175 = AXIS2_PLACEMENT_3D ( 'NONE', #131, #243, #253 ) ;
#176 = CARTESIAN_POINT ( 'NONE',  ( -3.100000000000000089, 0.000000000000000000, 105.0000000000000142 ) ) ;
#177 = ORIENTED_EDGE ( 'NONE', *, *, #222, .F. ) ;
#178 = DATE_AND_TIME ( #196, #109 ) ;
#179 = EDGE_LOOP ( 'NONE', ( #120, #184 ) ) ;
#180 = CARTESIAN_POINT ( 'NONE',  ( 3.100000000000000089, 3.796405077356794918E-16, 105.0000000000000142 ) ) ;
#181 = APPLICATION_CONTEXT ( 'configuration controlled 3d designs of mechanical parts and assemblies' ) ;
#182 = VERTEX_POINT ( 'NONE', #233 ) ;
#183 = FACE_OUTER_BOUND ( 'NONE', #136, .T. ) ;
#184 = ORIENTED_EDGE ( 'NONE', *, *, #35, .F. ) ;
#185 = CLOSED_SHELL ( 'NONE', ( #17, #226, #158, #87, #117, #40, #251 ) ) ;
#186 = FACE_OUTER_BOUND ( 'NONE', #138, .T. ) ;
#187 = CC_DESIGN_DATE_AND_TIME_ASSIGNMENT ( #140, #227, ( #134 ) ) ;
#188 = APPROVAL_DATE_TIME ( #210, #193 ) ;
#189 =( NAMED_UNIT ( * ) PLANE_ANGLE_UNIT ( ) SI_UNIT ( $, .RADIAN. ) );
#190 = CC_DESIGN_PERSON_AND_ORGANIZATION_ASSIGNMENT ( #236, #56, ( #72 ) ) ;
#191 = FACE_OUTER_BOUND ( 'NONE', #198, .T. ) ;
#192 = FACE_OUTER_BOUND ( 'NONE', #242, .T. ) ;
#193 = APPROVAL ( #88, 'NEURÈENÝ' ) ;
#194 = ORIENTED_EDGE ( 'NONE', *, *, #232, .T. ) ;
#195 = AXIS2_PLACEMENT_3D ( 'NONE', #85, #167, #206 ) ;
#196 = CALENDAR_DATE ( 2022, 7, 7 ) ;
#197 = DIRECTION ( 'NONE',  ( 0.000000000000000000, 0.000000000000000000, 1.000000000000000000 ) ) ;
#198 = EDGE_LOOP ( 'NONE', ( #202, #102, #21, #194 ) ) ;
#199 = DIRECTION ( 'NONE',  ( -1.000000000000000000, 0.000000000000000000, 0.000000000000000000 ) ) ;
#200 = VERTEX_POINT ( 'NONE', #174 ) ;
#201 = PRODUCT_RELATED_PRODUCT_CATEGORY ( 'detail', '', ( #214 ) ) ;
#202 = ORIENTED_EDGE ( 'NONE', *, *, #244, .F. ) ;
#203 = FACE_BOUND ( 'NONE', #179, .T. ) ;
#204 = ORIENTED_EDGE ( 'NONE', *, *, #121, .F. ) ;
#205 = CC_DESIGN_PERSON_AND_ORGANIZATION_ASSIGNMENT ( #70, #144, ( #207 ) ) ;
#206 = DIRECTION ( 'NONE',  ( 1.000000000000000000, 0.000000000000000000, 0.000000000000000000 ) ) ;
#207 = PRODUCT_DEFINITION_FORMATION_WITH_SPECIFIED_SOURCE ( 'LIBOVOLNÝ', '', #214, .NOT_KNOWN. ) ;
#208 = APPROVAL_ROLE ( '' ) ;
#209 = APPROVAL ( #105, 'NEURÈENÝ' ) ;
#210 = DATE_AND_TIME ( #108, #171 ) ;
#211 = AXIS2_PLACEMENT_3D ( 'NONE', #215, #111, #74 ) ;
#212 = CC_DESIGN_APPROVAL ( #193, ( #207 ) ) ;
#213 = APPLICATION_PROTOCOL_DEFINITION ( 'international standard', 'config_control_design', 1994, #181 ) ;
#214 = PRODUCT ( '7046', '7046', '', ( #129 ) ) ;
#215 = CARTESIAN_POINT ( 'NONE',  ( 0.000000000000000000, 0.000000000000000000, 5.000000000000000000 ) ) ;
#216 = DIRECTION ( 'NONE',  ( 1.000000000000000000, 0.000000000000000000, 0.000000000000000000 ) ) ;
#217 = APPROVAL_DATE_TIME ( #178, #81 ) ;
#218 = CARTESIAN_POINT ( 'NONE',  ( 0.000000000000000000, 0.000000000000000000, 105.0000000000000142 ) ) ;
#219 = VERTEX_POINT ( 'NONE', #252 ) ;
#220 = CC_DESIGN_SECURITY_CLASSIFICATION ( #134, ( #207 ) ) ;
#221 = VERTEX_POINT ( 'NONE', #234 ) ;
#222 = EDGE_CURVE ( 'NONE', #219, #82, #71, .T. ) ;
#223 = VECTOR ( 'NONE', #80, 1000.000000000000000 ) ;
#224 = CARTESIAN_POINT ( 'NONE',  ( 0.000000000000000000, 0.000000000000000000, 0.000000000000000000 ) ) ;
#225 = APPROVAL_PERSON_ORGANIZATION ( #16, #81, #76 ) ;
#226 = ADVANCED_FACE ( 'NONE', ( #192 ), #127, .T. ) ;
#227 = DATE_TIME_ROLE ( 'classification_date' ) ;
#228 = AXIS2_PLACEMENT_3D ( 'NONE', #235, #75, #151 ) ;
#229 = SECURITY_CLASSIFICATION_LEVEL ( 'unclassified' ) ;
#230 = CIRCLE ( 'NONE', #113, 6.000000000000000888 ) ;
#231 = LOCAL_TIME ( 19, 40, 1.000000000000000000, #11 ) ;
#232 = EDGE_CURVE ( 'NONE', #100, #239, #29, .T. ) ;
#233 = CARTESIAN_POINT ( 'NONE',  ( 6.000000000000000888, 7.347880794884120722E-16, 5.000000000000000000 ) ) ;
#234 = CARTESIAN_POINT ( 'NONE',  ( -6.000000000000000888, 0.000000000000000000, 5.000000000000000000 ) ) ;
#235 = CARTESIAN_POINT ( 'NONE',  ( 0.000000000000000000, 0.000000000000000000, 0.000000000000000000 ) ) ;
#236 = PERSON_AND_ORGANIZATION ( #160, #156 ) ;
#237 = CARTESIAN_POINT ( 'NONE',  ( -6.000000000000000888, 0.000000000000000000, 0.000000000000000000 ) ) ;
#238 = DIRECTION ( 'NONE',  ( 1.000000000000000000, 0.000000000000000000, 0.000000000000000000 ) ) ;
#239 = VERTEX_POINT ( 'NONE', #124 ) ;
#240 = EDGE_CURVE ( 'NONE', #82, #219, #66, .T. ) ;
#241 = DIRECTION ( 'NONE',  ( 0.000000000000000000, 0.000000000000000000, 1.000000000000000000 ) ) ;
#242 = EDGE_LOOP ( 'NONE', ( #20, #132, #23, #103 ) ) ;
#243 = DIRECTION ( 'NONE',  ( 0.000000000000000000, 0.000000000000000000, 1.000000000000000000 ) ) ;
#244 = EDGE_CURVE ( 'NONE', #182, #239, #46, .T. ) ;
#245 = ADVANCED_BREP_SHAPE_REPRESENTATION ( '7046', ( #55, #228 ), #84 ) ;
#246 = CARTESIAN_POINT ( 'NONE',  ( 0.000000000000000000, 0.000000000000000000, 105.0000000000000142 ) ) ;
#247 = APPROVAL_ROLE ( '' ) ;
#248 = CC_DESIGN_PERSON_AND_ORGANIZATION_ASSIGNMENT ( #47, #45, ( #134 ) ) ;
#249 = PRODUCT_DEFINITION_SHAPE ( 'NONE', 'NONE',  #72 ) ;
#250 = DIRECTION ( 'NONE',  ( 1.000000000000000000, 0.000000000000000000, 0.000000000000000000 ) ) ;
#251 = ADVANCED_FACE ( 'NONE', ( #186 ), #10, .T. ) ;
#252 = CARTESIAN_POINT ( 'NONE',  ( 3.100000000000000089, 3.796405077356794918E-16, 105.0000000000000142 ) ) ;
#253 = DIRECTION ( 'NONE',  ( 1.000000000000000000, 0.000000000000000000, -0.000000000000000000 ) ) ;
#254 = ORIENTED_EDGE ( 'NONE', *, *, #222, .T. ) ;
#255 = DATE_TIME_ROLE ( 'creation_date' ) ;
ENDSEC;
END-ISO-10303-21;
