ISO-10303-21;
HEADER;
FILE_DESCRIPTION (( 'STEP AP203' ),
    '1' );
FILE_NAME ('0da8.STEP',
    '2022-07-07T17:17:24',
    ( '' ),
    ( '' ),
    'SwSTEP 2.0',
    'SolidWorks 2019',
    '' );
FILE_SCHEMA (( 'CONFIG_CONTROL_DESIGN' ));
ENDSEC;

DATA;
#1 = EDGE_LOOP ( 'NONE', ( #77, #96 ) ) ;
#2 = VERTEX_POINT ( 'NONE', #152 ) ;
#3 = UNCERTAINTY_MEASURE_WITH_UNIT (LENGTH_MEASURE( 1.000000000000000082E-05 ), #8, 'distance_accuracy_value', 'NONE');
#4 = CLOSED_SHELL ( 'NONE', ( #162, #97, #188, #39, #137, #111, #141 ) ) ;
#5 = CC_DESIGN_APPROVAL ( #131, ( #95 ) ) ;
#6 = CYLINDRICAL_SURFACE ( 'NONE', #76, 11.00000000000000000 ) ;
#7 = DIRECTION ( 'NONE',  ( 1.000000000000000000, 0.000000000000000000, -0.000000000000000000 ) ) ;
#8 =( LENGTH_UNIT ( ) NAMED_UNIT ( * ) SI_UNIT ( .MILLI., .METRE. ) );
#9 = APPLICATION_PROTOCOL_DEFINITION ( 'international standard', 'config_control_design', 1994, #74 ) ;
#10 = DATE_AND_TIME ( #53, #108 ) ;
#11 = DIRECTION ( 'NONE',  ( 0.000000000000000000, 0.000000000000000000, 1.000000000000000000 ) ) ;
#12 =( NAMED_UNIT ( * ) SI_UNIT ( $, .STERADIAN. ) SOLID_ANGLE_UNIT ( ) );
#13 = MECHANICAL_CONTEXT ( 'NONE', #74, 'mechanical' ) ;
#14 = APPROVAL_ROLE ( '' ) ;
#15 = CARTESIAN_POINT ( 'NONE',  ( 0.000000000000000000, 0.000000000000000000, 7.000000000000000000 ) ) ;
#16 = AXIS2_PLACEMENT_3D ( 'NONE', #231, #175, #170 ) ;
#17 = MANIFOLD_SOLID_BREP ( 'Pøidat vysunutím3', #4 ) ;
#18 = CC_DESIGN_PERSON_AND_ORGANIZATION_ASSIGNMENT ( #191, #69, ( #63 ) ) ;
#19 = PERSON ( 'NEURÈENÝ', 'NEURÈENÝ', 'NEURÈENÝ', ('NEURÈENÝ'), ('NEURÈENÝ'), ('NEURÈENÝ') ) ;
#20 = ORIENTED_EDGE ( 'NONE', *, *, #116, .F. ) ;
#21 = EDGE_CURVE ( 'NONE', #238, #181, #112, .T. ) ;
#22 = AXIS2_PLACEMENT_3D ( 'NONE', #157, #243, #146 ) ;
#23 = ORIENTED_EDGE ( 'NONE', *, *, #217, .F. ) ;
#24 = VERTEX_POINT ( 'NONE', #28 ) ;
#25 = DIRECTION ( 'NONE',  ( 0.000000000000000000, 0.000000000000000000, 1.000000000000000000 ) ) ;
#26 = AXIS2_PLACEMENT_3D ( 'NONE', #145, #223, #232 ) ;
#27 = CARTESIAN_POINT ( 'NONE',  ( -11.00000000000000000, 0.000000000000000000, 0.000000000000000000 ) ) ;
#28 = CARTESIAN_POINT ( 'NONE',  ( -11.00000000000000000, 0.000000000000000000, 7.000000000000000000 ) ) ;
#29 = DIRECTION ( 'NONE',  ( 1.000000000000000000, 0.000000000000000000, 0.000000000000000000 ) ) ;
#30 = CARTESIAN_POINT ( 'NONE',  ( 0.000000000000000000, 0.000000000000000000, 0.000000000000000000 ) ) ;
#31 = CALENDAR_DATE ( 2022, 7, 7 ) ;
#32 = CARTESIAN_POINT ( 'NONE',  ( -6.500000000000000888, 0.000000000000000000, 107.0000000000000142 ) ) ;
#33 =( NAMED_UNIT ( * ) PLANE_ANGLE_UNIT ( ) SI_UNIT ( $, .RADIAN. ) );
#34 = PERSON_AND_ORGANIZATION ( #19, #86 ) ;
#35 = APPROVAL_STATUS ( 'not_yet_approved' ) ;
#36 = CYLINDRICAL_SURFACE ( 'NONE', #114, 6.500000000000000888 ) ;
#37 = AXIS2_PLACEMENT_3D ( 'NONE', #187, #117, #169 ) ;
#38 = PERSON_AND_ORGANIZATION_ROLE ( 'classification_officer' ) ;
#39 = ADVANCED_FACE ( 'NONE', ( #65, #250 ), #148, .T. ) ;
#40 = ORIENTED_EDGE ( 'NONE', *, *, #84, .F. ) ;
#41 = EDGE_LOOP ( 'NONE', ( #139, #236, #138, #165 ) ) ;
#42 = CARTESIAN_POINT ( 'NONE',  ( 6.500000000000000888, 7.960204194457796463E-16, 7.000000000000000000 ) ) ;
#43 = CARTESIAN_POINT ( 'NONE',  ( 6.500000000000000888, 7.960204194457796463E-16, 107.0000000000000142 ) ) ;
#44 = LOCAL_TIME ( 19, 17, 24.00000000000000000, #233 ) ;
#45 = FACE_OUTER_BOUND ( 'NONE', #41, .T. ) ;
#46 = EDGE_CURVE ( 'NONE', #55, #2, #205, .T. ) ;
#47 = PERSON_AND_ORGANIZATION ( #19, #86 ) ;
#48 = CARTESIAN_POINT ( 'NONE',  ( 11.00000000000000000, 1.347111479062088405E-15, 0.000000000000000000 ) ) ;
#49 = CALENDAR_DATE ( 2022, 7, 7 ) ;
#50 = DATE_TIME_ROLE ( 'classification_date' ) ;
#51 = CARTESIAN_POINT ( 'NONE',  ( 0.000000000000000000, 0.000000000000000000, 107.0000000000000142 ) ) ;
#52 = PERSON_AND_ORGANIZATION_ROLE ( 'design_owner' ) ;
#53 = CALENDAR_DATE ( 2022, 7, 7 ) ;
#54 = DIRECTION ( 'NONE',  ( -0.000000000000000000, -0.000000000000000000, -1.000000000000000000 ) ) ;
#55 = VERTEX_POINT ( 'NONE', #224 ) ;
#56 = AXIS2_PLACEMENT_3D ( 'NONE', #51, #122, #29 ) ;
#57 = ORIENTED_EDGE ( 'NONE', *, *, #123, .F. ) ;
#58 = ORIENTED_EDGE ( 'NONE', *, *, #116, .T. ) ;
#59 = PRODUCT ( '0da8', '0da8', '', ( #13 ) ) ;
#60 = ORIENTED_EDGE ( 'NONE', *, *, #255, .T. ) ;
#61 = CYLINDRICAL_SURFACE ( 'NONE', #197, 6.500000000000000888 ) ;
#62 = DIRECTION ( 'NONE',  ( -1.000000000000000000, 0.000000000000000000, 0.000000000000000000 ) ) ;
#63 = PRODUCT_DEFINITION ( 'NEZNÁMÝ', '', #135, #184 ) ;
#64 = FACE_OUTER_BOUND ( 'NONE', #200, .T. ) ;
#65 = FACE_BOUND ( 'NONE', #90, .T. ) ;
#66 = DIRECTION ( 'NONE',  ( -0.000000000000000000, -0.000000000000000000, -1.000000000000000000 ) ) ;
#67 = COORDINATED_UNIVERSAL_TIME_OFFSET ( 1, 0, .AHEAD. ) ;
#68 = COORDINATED_UNIVERSAL_TIME_OFFSET ( 1, 0, .AHEAD. ) ;
#69 = PERSON_AND_ORGANIZATION_ROLE ( 'creator' ) ;
#70 = SHAPE_DEFINITION_REPRESENTATION ( #143, #115 ) ;
#71 = CARTESIAN_POINT ( 'NONE',  ( 0.000000000000000000, 0.000000000000000000, 7.000000000000000000 ) ) ;
#72 = CYLINDRICAL_SURFACE ( 'NONE', #214, 11.00000000000000000 ) ;
#73 = VECTOR ( 'NONE', #195, 1000.000000000000000 ) ;
#74 = APPLICATION_CONTEXT ( 'configuration controlled 3d designs of mechanical parts and assemblies' ) ;
#75 = CC_DESIGN_PERSON_AND_ORGANIZATION_ASSIGNMENT ( #209, #38, ( #95 ) ) ;
#76 = AXIS2_PLACEMENT_3D ( 'NONE', #81, #167, #62 ) ;
#77 = ORIENTED_EDGE ( 'NONE', *, *, #179, .F. ) ;
#78 = ORIENTED_EDGE ( 'NONE', *, *, #158, .F. ) ;
#79 = ORIENTED_EDGE ( 'NONE', *, *, #123, .T. ) ;
#80 = AXIS2_PLACEMENT_3D ( 'NONE', #121, #130, #105 ) ;
#81 = CARTESIAN_POINT ( 'NONE',  ( 0.000000000000000000, 0.000000000000000000, 7.000000000000000000 ) ) ;
#82 = DIRECTION ( 'NONE',  ( -1.000000000000000000, 0.000000000000000000, 0.000000000000000000 ) ) ;
#83 = PERSON_AND_ORGANIZATION ( #19, #86 ) ;
#84 = EDGE_CURVE ( 'NONE', #159, #55, #160, .T. ) ;
#85 = APPROVAL_DATE_TIME ( #10, #103 ) ;
#86 = ORGANIZATION ( 'NEURÈENÝ', 'NEURÈENÝ', '' ) ;
#87 = CARTESIAN_POINT ( 'NONE',  ( -11.00000000000000000, 0.000000000000000000, 7.000000000000000000 ) ) ;
#88 = APPROVAL ( #173, 'NEURÈENÝ' ) ;
#89 = APPROVAL_DATE_TIME ( #194, #131 ) ;
#90 = EDGE_LOOP ( 'NONE', ( #23, #57 ) ) ;
#91 = APPLICATION_CONTEXT ( 'configuration controlled 3d designs of mechanical parts and assemblies' ) ;
#92 = CARTESIAN_POINT ( 'NONE',  ( 0.000000000000000000, 0.000000000000000000, 107.0000000000000142 ) ) ;
#93 = VECTOR ( 'NONE', #66, 1000.000000000000000 ) ;
#94 = EDGE_CURVE ( 'NONE', #24, #253, #225, .T. ) ;
#95 = SECURITY_CLASSIFICATION ( '', '', #155 ) ;
#96 = ORIENTED_EDGE ( 'NONE', *, *, #21, .F. ) ;
#97 = ADVANCED_FACE ( 'NONE', ( #101 ), #72, .T. ) ;
#98 = FACE_OUTER_BOUND ( 'NONE', #216, .T. ) ;
#99 = CARTESIAN_POINT ( 'NONE',  ( 0.000000000000000000, 0.000000000000000000, 0.000000000000000000 ) ) ;
#100 = DIRECTION ( 'NONE',  ( 1.000000000000000000, 0.000000000000000000, -0.000000000000000000 ) ) ;
#101 = FACE_OUTER_BOUND ( 'NONE', #133, .T. ) ;
#102 = CARTESIAN_POINT ( 'NONE',  ( 6.500000000000000888, 7.960204194457796463E-16, 107.0000000000000142 ) ) ;
#103 = APPROVAL ( #245, 'NEURÈENÝ' ) ;
#104 = DIRECTION ( 'NONE',  ( 0.000000000000000000, 0.000000000000000000, 1.000000000000000000 ) ) ;
#105 = DIRECTION ( 'NONE',  ( 1.000000000000000000, 0.000000000000000000, 0.000000000000000000 ) ) ;
#106 = APPROVAL_ROLE ( '' ) ;
#107 = CALENDAR_DATE ( 2022, 7, 7 ) ;
#108 = LOCAL_TIME ( 19, 17, 24.00000000000000000, #151 ) ;
#109 = DIRECTION ( 'NONE',  ( -1.000000000000000000, 0.000000000000000000, 0.000000000000000000 ) ) ;
#110 = CARTESIAN_POINT ( 'NONE',  ( 11.00000000000000000, 1.347111479062088405E-15, 7.000000000000000000 ) ) ;
#111 = ADVANCED_FACE ( 'NONE', ( #45 ), #36, .T. ) ;
#112 = CIRCLE ( 'NONE', #16, 11.00000000000000000 ) ;
#113 = ORIENTED_EDGE ( 'NONE', *, *, #84, .T. ) ;
#114 = AXIS2_PLACEMENT_3D ( 'NONE', #92, #249, #109 ) ;
#115 = ADVANCED_BREP_SHAPE_REPRESENTATION ( '0da8', ( #17, #119 ), #177 ) ;
#116 = EDGE_CURVE ( 'NONE', #253, #238, #210, .T. ) ;
#117 = DIRECTION ( 'NONE',  ( 0.000000000000000000, 0.000000000000000000, 1.000000000000000000 ) ) ;
#118 = PLANE ( 'NONE',  #219 ) ;
#119 = AXIS2_PLACEMENT_3D ( 'NONE', #30, #104, #154 ) ;
#120 = CARTESIAN_POINT ( 'NONE',  ( 0.000000000000000000, 0.000000000000000000, 107.0000000000000142 ) ) ;
#121 = CARTESIAN_POINT ( 'NONE',  ( 0.000000000000000000, 0.000000000000000000, 107.0000000000000142 ) ) ;
#122 = DIRECTION ( 'NONE',  ( 0.000000000000000000, 0.000000000000000000, 1.000000000000000000 ) ) ;
#123 = EDGE_CURVE ( 'NONE', #182, #2, #132, .T. ) ;
#124 = APPLICATION_PROTOCOL_DEFINITION ( 'international standard', 'config_control_design', 1994, #91 ) ;
#125 = DIRECTION ( 'NONE',  ( 0.000000000000000000, 0.000000000000000000, 1.000000000000000000 ) ) ;
#126 = DATE_AND_TIME ( #49, #140 ) ;
#127 = PERSON_AND_ORGANIZATION ( #19, #86 ) ;
#128 = DIRECTION ( 'NONE',  ( 1.000000000000000000, 0.000000000000000000, 0.000000000000000000 ) ) ;
#129 = PERSON_AND_ORGANIZATION_ROLE ( 'design_supplier' ) ;
#130 = DIRECTION ( 'NONE',  ( 0.000000000000000000, 0.000000000000000000, 1.000000000000000000 ) ) ;
#131 = APPROVAL ( #35, 'NEURÈENÝ' ) ;
#132 = CIRCLE ( 'NONE', #22, 6.500000000000000888 ) ;
#133 = EDGE_LOOP ( 'NONE', ( #78, #58, #240, #199 ) ) ;
#134 = CIRCLE ( 'NONE', #26, 6.500000000000000888 ) ;
#135 = PRODUCT_DEFINITION_FORMATION_WITH_SPECIFIED_SOURCE ( 'LIBOVOLNÝ', '', #59, .NOT_KNOWN. ) ;
#136 = LOCAL_TIME ( 19, 17, 24.00000000000000000, #68 ) ;
#137 = ADVANCED_FACE ( 'NONE', ( #222 ), #118, .F. ) ;
#138 = ORIENTED_EDGE ( 'NONE', *, *, #46, .T. ) ;
#139 = ORIENTED_EDGE ( 'NONE', *, *, #255, .F. ) ;
#140 = LOCAL_TIME ( 19, 17, 24.00000000000000000, #229 ) ;
#141 = ADVANCED_FACE ( 'NONE', ( #244 ), #202, .T. ) ;
#142 = EDGE_LOOP ( 'NONE', ( #213, #113 ) ) ;
#143 = PRODUCT_DEFINITION_SHAPE ( 'NONE', 'NONE',  #63 ) ;
#144 = DIRECTION ( 'NONE',  ( -0.000000000000000000, -0.000000000000000000, -1.000000000000000000 ) ) ;
#145 = CARTESIAN_POINT ( 'NONE',  ( 0.000000000000000000, 0.000000000000000000, 7.000000000000000000 ) ) ;
#146 = DIRECTION ( 'NONE',  ( 1.000000000000000000, 0.000000000000000000, 0.000000000000000000 ) ) ;
#147 = CIRCLE ( 'NONE', #37, 11.00000000000000000 ) ;
#148 = PLANE ( 'NONE',  #203 ) ;
#149 = DIRECTION ( 'NONE',  ( -0.000000000000000000, -0.000000000000000000, -1.000000000000000000 ) ) ;
#150 = DATE_AND_TIME ( #193, #178 ) ;
#151 = COORDINATED_UNIVERSAL_TIME_OFFSET ( 1, 0, .AHEAD. ) ;
#152 = CARTESIAN_POINT ( 'NONE',  ( -6.500000000000000888, 0.000000000000000000, 7.000000000000000000 ) ) ;
#153 = LINE ( 'NONE', #87, #237 ) ;
#154 = DIRECTION ( 'NONE',  ( 1.000000000000000000, 0.000000000000000000, 0.000000000000000000 ) ) ;
#155 = SECURITY_CLASSIFICATION_LEVEL ( 'unclassified' ) ;
#156 = VECTOR ( 'NONE', #54, 1000.000000000000000 ) ;
#157 = CARTESIAN_POINT ( 'NONE',  ( 0.000000000000000000, 0.000000000000000000, 7.000000000000000000 ) ) ;
#158 = EDGE_CURVE ( 'NONE', #253, #24, #147, .T. ) ;
#159 = VERTEX_POINT ( 'NONE', #43 ) ;
#160 = CIRCLE ( 'NONE', #80, 6.500000000000000888 ) ;
#161 = APPROVAL_PERSON_ORGANIZATION ( #83, #103, #192 ) ;
#162 = ADVANCED_FACE ( 'NONE', ( #64 ), #61, .T. ) ;
#163 = ORIENTED_EDGE ( 'NONE', *, *, #179, .T. ) ;
#164 = PRODUCT_RELATED_PRODUCT_CATEGORY ( 'detail', '', ( #59 ) ) ;
#165 = ORIENTED_EDGE ( 'NONE', *, *, #217, .T. ) ;
#166 = CC_DESIGN_APPROVAL ( #88, ( #63 ) ) ;
#167 = DIRECTION ( 'NONE',  ( -0.000000000000000000, -0.000000000000000000, -1.000000000000000000 ) ) ;
#168 = ORIENTED_EDGE ( 'NONE', *, *, #46, .F. ) ;
#169 = DIRECTION ( 'NONE',  ( 1.000000000000000000, 0.000000000000000000, 0.000000000000000000 ) ) ;
#170 = DIRECTION ( 'NONE',  ( 1.000000000000000000, 0.000000000000000000, 0.000000000000000000 ) ) ;
#171 = PERSON_AND_ORGANIZATION_ROLE ( 'creator' ) ;
#172 = DIRECTION ( 'NONE',  ( -0.000000000000000000, -0.000000000000000000, -1.000000000000000000 ) ) ;
#173 = APPROVAL_STATUS ( 'not_yet_approved' ) ;
#174 = CARTESIAN_POINT ( 'NONE',  ( 0.000000000000000000, 0.000000000000000000, 7.000000000000000000 ) ) ;
#175 = DIRECTION ( 'NONE',  ( 0.000000000000000000, 0.000000000000000000, 1.000000000000000000 ) ) ;
#176 = CIRCLE ( 'NONE', #56, 6.500000000000000888 ) ;
#177 =( GEOMETRIC_REPRESENTATION_CONTEXT ( 3 ) GLOBAL_UNCERTAINTY_ASSIGNED_CONTEXT ( ( #3 ) ) GLOBAL_UNIT_ASSIGNED_CONTEXT ( ( #8, #33, #12 ) ) REPRESENTATION_CONTEXT ( 'NONE', 'WORKASPACE' ) );
#178 = LOCAL_TIME ( 19, 17, 24.00000000000000000, #67 ) ;
#179 = EDGE_CURVE ( 'NONE', #181, #238, #212, .T. ) ;
#180 = ORIENTED_EDGE ( 'NONE', *, *, #158, .T. ) ;
#181 = VERTEX_POINT ( 'NONE', #27 ) ;
#182 = VERTEX_POINT ( 'NONE', #42 ) ;
#183 = DIRECTION ( 'NONE',  ( 0.000000000000000000, 0.000000000000000000, 1.000000000000000000 ) ) ;
#184 = DESIGN_CONTEXT ( 'detailed design', #91, 'design' ) ;
#185 = AXIS2_PLACEMENT_3D ( 'NONE', #71, #11, #128 ) ;
#186 = APPROVAL_PERSON_ORGANIZATION ( #34, #88, #106 ) ;
#187 = CARTESIAN_POINT ( 'NONE',  ( 0.000000000000000000, 0.000000000000000000, 7.000000000000000000 ) ) ;
#188 = ADVANCED_FACE ( 'NONE', ( #98 ), #6, .T. ) ;
#189 = DIRECTION ( 'NONE',  ( 0.000000000000000000, 0.000000000000000000, 1.000000000000000000 ) ) ;
#190 = DATE_TIME_ROLE ( 'creation_date' ) ;
#191 = PERSON_AND_ORGANIZATION ( #19, #86 ) ;
#192 = APPROVAL_ROLE ( '' ) ;
#193 = CALENDAR_DATE ( 2022, 7, 7 ) ;
#194 = DATE_AND_TIME ( #107, #44 ) ;
#195 = DIRECTION ( 'NONE',  ( -0.000000000000000000, -0.000000000000000000, -1.000000000000000000 ) ) ;
#196 = AXIS2_PLACEMENT_3D ( 'NONE', #120, #189, #7 ) ;
#197 = AXIS2_PLACEMENT_3D ( 'NONE', #220, #144, #82 ) ;
#198 = CC_DESIGN_DATE_AND_TIME_ASSIGNMENT ( #126, #190, ( #63 ) ) ;
#199 = ORIENTED_EDGE ( 'NONE', *, *, #228, .F. ) ;
#200 = EDGE_LOOP ( 'NONE', ( #40, #60, #79, #168 ) ) ;
#201 = APPROVAL_PERSON_ORGANIZATION ( #207, #131, #14 ) ;
#202 = PLANE ( 'NONE',  #196 ) ;
#203 = AXIS2_PLACEMENT_3D ( 'NONE', #15, #125, #226 ) ;
#204 = DIRECTION ( 'NONE',  ( 1.000000000000000000, 0.000000000000000000, 0.000000000000000000 ) ) ;
#205 = LINE ( 'NONE', #32, #156 ) ;
#206 = LINE ( 'NONE', #102, #93 ) ;
#207 = PERSON_AND_ORGANIZATION ( #19, #86 ) ;
#208 = DIRECTION ( 'NONE',  ( -1.000000000000000000, 0.000000000000000000, 0.000000000000000000 ) ) ;
#209 = PERSON_AND_ORGANIZATION ( #19, #86 ) ;
#210 = LINE ( 'NONE', #110, #73 ) ;
#211 = CC_DESIGN_PERSON_AND_ORGANIZATION_ASSIGNMENT ( #247, #171, ( #135 ) ) ;
#212 = CIRCLE ( 'NONE', #251, 11.00000000000000000 ) ;
#213 = ORIENTED_EDGE ( 'NONE', *, *, #221, .T. ) ;
#214 = AXIS2_PLACEMENT_3D ( 'NONE', #174, #172, #208 ) ;
#215 = CC_DESIGN_SECURITY_CLASSIFICATION ( #95, ( #135 ) ) ;
#216 = EDGE_LOOP ( 'NONE', ( #20, #234, #254, #163 ) ) ;
#217 = EDGE_CURVE ( 'NONE', #2, #182, #134, .T. ) ;
#218 = EDGE_LOOP ( 'NONE', ( #239, #180 ) ) ;
#219 = AXIS2_PLACEMENT_3D ( 'NONE', #99, #183, #100 ) ;
#220 = CARTESIAN_POINT ( 'NONE',  ( 0.000000000000000000, 0.000000000000000000, 107.0000000000000142 ) ) ;
#221 = EDGE_CURVE ( 'NONE', #55, #159, #176, .T. ) ;
#222 = FACE_OUTER_BOUND ( 'NONE', #1, .T. ) ;
#223 = DIRECTION ( 'NONE',  ( 0.000000000000000000, 0.000000000000000000, 1.000000000000000000 ) ) ;
#224 = CARTESIAN_POINT ( 'NONE',  ( -6.500000000000000888, 0.000000000000000000, 107.0000000000000142 ) ) ;
#225 = CIRCLE ( 'NONE', #185, 11.00000000000000000 ) ;
#226 = DIRECTION ( 'NONE',  ( 1.000000000000000000, 0.000000000000000000, -0.000000000000000000 ) ) ;
#227 = CARTESIAN_POINT ( 'NONE',  ( 11.00000000000000000, 1.347111479062088405E-15, 7.000000000000000000 ) ) ;
#228 = EDGE_CURVE ( 'NONE', #24, #181, #153, .T. ) ;
#229 = COORDINATED_UNIVERSAL_TIME_OFFSET ( 1, 0, .AHEAD. ) ;
#230 = DATE_AND_TIME ( #31, #136 ) ;
#231 = CARTESIAN_POINT ( 'NONE',  ( 0.000000000000000000, 0.000000000000000000, 0.000000000000000000 ) ) ;
#232 = DIRECTION ( 'NONE',  ( 1.000000000000000000, 0.000000000000000000, 0.000000000000000000 ) ) ;
#233 = COORDINATED_UNIVERSAL_TIME_OFFSET ( 1, 0, .AHEAD. ) ;
#234 = ORIENTED_EDGE ( 'NONE', *, *, #94, .F. ) ;
#235 = CC_DESIGN_PERSON_AND_ORGANIZATION_ASSIGNMENT ( #127, #129, ( #135 ) ) ;
#236 = ORIENTED_EDGE ( 'NONE', *, *, #221, .F. ) ;
#237 = VECTOR ( 'NONE', #149, 1000.000000000000000 ) ;
#238 = VERTEX_POINT ( 'NONE', #48 ) ;
#239 = ORIENTED_EDGE ( 'NONE', *, *, #94, .T. ) ;
#240 = ORIENTED_EDGE ( 'NONE', *, *, #21, .T. ) ;
#241 = CC_DESIGN_PERSON_AND_ORGANIZATION_ASSIGNMENT ( #47, #52, ( #59 ) ) ;
#242 = CARTESIAN_POINT ( 'NONE',  ( 0.000000000000000000, 0.000000000000000000, 0.000000000000000000 ) ) ;
#243 = DIRECTION ( 'NONE',  ( 0.000000000000000000, 0.000000000000000000, 1.000000000000000000 ) ) ;
#244 = FACE_OUTER_BOUND ( 'NONE', #142, .T. ) ;
#245 = APPROVAL_STATUS ( 'not_yet_approved' ) ;
#246 = CC_DESIGN_DATE_AND_TIME_ASSIGNMENT ( #230, #50, ( #95 ) ) ;
#247 = PERSON_AND_ORGANIZATION ( #19, #86 ) ;
#248 = APPROVAL_DATE_TIME ( #150, #88 ) ;
#249 = DIRECTION ( 'NONE',  ( -0.000000000000000000, -0.000000000000000000, -1.000000000000000000 ) ) ;
#250 = FACE_OUTER_BOUND ( 'NONE', #218, .T. ) ;
#251 = AXIS2_PLACEMENT_3D ( 'NONE', #242, #25, #204 ) ;
#252 = CC_DESIGN_APPROVAL ( #103, ( #135 ) ) ;
#253 = VERTEX_POINT ( 'NONE', #227 ) ;
#254 = ORIENTED_EDGE ( 'NONE', *, *, #228, .T. ) ;
#255 = EDGE_CURVE ( 'NONE', #159, #182, #206, .T. ) ;
ENDSEC;
END-ISO-10303-21;
