ISO-10303-21;
HEADER;
FILE_DESCRIPTION (( 'STEP AP203' ),
    '1' );
FILE_NAME ('793d.STEP',
    '2022-07-07T17:34:02',
    ( '' ),
    ( '' ),
    'SwSTEP 2.0',
    'SolidWorks 2019',
    '' );
FILE_SCHEMA (( 'CONFIG_CONTROL_DESIGN' ));
ENDSEC;

DATA;
#1 = AXIS2_PLACEMENT_3D ( 'NONE', #187, #157, #223 ) ;
#2 = CARTESIAN_POINT ( 'NONE',  ( 0.000000000000000000, 0.000000000000000000, 0.000000000000000000 ) ) ;
#3 = VERTEX_POINT ( 'NONE', #151 ) ;
#4 = AXIS2_PLACEMENT_3D ( 'NONE', #249, #252, #47 ) ;
#5 = DIRECTION ( 'NONE',  ( 0.000000000000000000, 0.000000000000000000, 1.000000000000000000 ) ) ;
#6 = DIRECTION ( 'NONE',  ( 0.000000000000000000, 0.000000000000000000, 1.000000000000000000 ) ) ;
#7 = CARTESIAN_POINT ( 'NONE',  ( 3.750000000000000000, 4.592425496802573972E-16, 405.0000000000000000 ) ) ;
#8 = DIRECTION ( 'NONE',  ( 0.000000000000000000, 0.000000000000000000, 1.000000000000000000 ) ) ;
#9 = CARTESIAN_POINT ( 'NONE',  ( 0.000000000000000000, 0.000000000000000000, 5.000000000000000000 ) ) ;
#10 = CYLINDRICAL_SURFACE ( 'NONE', #159, 3.750000000000000000 ) ;
#11 = CC_DESIGN_DATE_AND_TIME_ASSIGNMENT ( #144, #53, ( #23 ) ) ;
#12 = DIRECTION ( 'NONE',  ( -0.000000000000000000, -0.000000000000000000, -1.000000000000000000 ) ) ;
#13 = DIRECTION ( 'NONE',  ( -0.000000000000000000, -0.000000000000000000, -1.000000000000000000 ) ) ;
#14 = AXIS2_PLACEMENT_3D ( 'NONE', #105, #102, #181 ) ;
#15 = DATE_AND_TIME ( #195, #147 ) ;
#16 = DIRECTION ( 'NONE',  ( 1.000000000000000000, 0.000000000000000000, 0.000000000000000000 ) ) ;
#17 = APPROVAL_ROLE ( '' ) ;
#18 = CC_DESIGN_PERSON_AND_ORGANIZATION_ASSIGNMENT ( #197, #93, ( #84 ) ) ;
#19 = COORDINATED_UNIVERSAL_TIME_OFFSET ( 1, 0, .AHEAD. ) ;
#20 = PERSON_AND_ORGANIZATION_ROLE ( 'classification_officer' ) ;
#21 = CC_DESIGN_APPROVAL ( #154, ( #23 ) ) ;
#22 = CARTESIAN_POINT ( 'NONE',  ( 6.000000000000000888, 7.347880794884120722E-16, 0.000000000000000000 ) ) ;
#23 = PRODUCT_DEFINITION ( 'NEZNÁMÝ', '', #84, #251 ) ;
#24 = CARTESIAN_POINT ( 'NONE',  ( -3.750000000000000000, 0.000000000000000000, 5.000000000000000000 ) ) ;
#25 = CIRCLE ( 'NONE', #14, 3.750000000000000000 ) ;
#26 = DIRECTION ( 'NONE',  ( -1.000000000000000000, 0.000000000000000000, 0.000000000000000000 ) ) ;
#27 = PLANE ( 'NONE',  #129 ) ;
#28 = DIRECTION ( 'NONE',  ( -0.000000000000000000, -0.000000000000000000, -1.000000000000000000 ) ) ;
#29 = VECTOR ( 'NONE', #12, 1000.000000000000000 ) ;
#30 = DIRECTION ( 'NONE',  ( -0.000000000000000000, -0.000000000000000000, -1.000000000000000000 ) ) ;
#31 = AXIS2_PLACEMENT_3D ( 'NONE', #2, #33, #16 ) ;
#32 = CIRCLE ( 'NONE', #209, 6.000000000000000888 ) ;
#33 = DIRECTION ( 'NONE',  ( 0.000000000000000000, 0.000000000000000000, 1.000000000000000000 ) ) ;
#34 = PERSON_AND_ORGANIZATION ( #125, #247 ) ;
#35 = MECHANICAL_CONTEXT ( 'NONE', #140, 'mechanical' ) ;
#36 = APPROVAL_STATUS ( 'not_yet_approved' ) ;
#37 = CARTESIAN_POINT ( 'NONE',  ( -3.750000000000000000, 0.000000000000000000, 405.0000000000000000 ) ) ;
#38 = EDGE_CURVE ( 'NONE', #173, #183, #220, .T. ) ;
#39 = CYLINDRICAL_SURFACE ( 'NONE', #240, 6.000000000000000888 ) ;
#40 = AXIS2_PLACEMENT_3D ( 'NONE', #130, #6, #79 ) ;
#41 = VERTEX_POINT ( 'NONE', #22 ) ;
#42 = EDGE_LOOP ( 'NONE', ( #243, #150 ) ) ;
#43 = FACE_OUTER_BOUND ( 'NONE', #202, .T. ) ;
#44 = APPROVAL_PERSON_ORGANIZATION ( #52, #132, #17 ) ;
#45 = ORIENTED_EDGE ( 'NONE', *, *, #66, .T. ) ;
#46 = ADVANCED_FACE ( 'NONE', ( #103 ), #227, .T. ) ;
#47 = DIRECTION ( 'NONE',  ( 1.000000000000000000, 0.000000000000000000, 0.000000000000000000 ) ) ;
#48 = CARTESIAN_POINT ( 'NONE',  ( 6.000000000000000888, 7.347880794884120722E-16, 5.000000000000000000 ) ) ;
#49 = CC_DESIGN_PERSON_AND_ORGANIZATION_ASSIGNMENT ( #34, #216, ( #155 ) ) ;
#50 = MANIFOLD_SOLID_BREP ( 'Pøidat vysunutím3', #166 ) ;
#51 = COORDINATED_UNIVERSAL_TIME_OFFSET ( 1, 0, .AHEAD. ) ;
#52 = PERSON_AND_ORGANIZATION ( #125, #247 ) ;
#53 = DATE_TIME_ROLE ( 'creation_date' ) ;
#54 = VERTEX_POINT ( 'NONE', #120 ) ;
#55 = DATE_AND_TIME ( #90, #91 ) ;
#56 = VERTEX_POINT ( 'NONE', #117 ) ;
#57 = EDGE_LOOP ( 'NONE', ( #248, #128 ) ) ;
#58 = ORIENTED_EDGE ( 'NONE', *, *, #253, .T. ) ;
#59 = ORIENTED_EDGE ( 'NONE', *, *, #230, .F. ) ;
#60 = ORIENTED_EDGE ( 'NONE', *, *, #145, .F. ) ;
#61 = UNCERTAINTY_MEASURE_WITH_UNIT (LENGTH_MEASURE( 1.000000000000000082E-05 ), #244, 'distance_accuracy_value', 'NONE');
#62 = ORIENTED_EDGE ( 'NONE', *, *, #230, .T. ) ;
#63 = CARTESIAN_POINT ( 'NONE',  ( 0.000000000000000000, 0.000000000000000000, 5.000000000000000000 ) ) ;
#64 = DIRECTION ( 'NONE',  ( 1.000000000000000000, 0.000000000000000000, 0.000000000000000000 ) ) ;
#65 = CARTESIAN_POINT ( 'NONE',  ( 0.000000000000000000, 0.000000000000000000, 0.000000000000000000 ) ) ;
#66 = EDGE_CURVE ( 'NONE', #54, #127, #96, .T. ) ;
#67 = AXIS2_PLACEMENT_3D ( 'NONE', #122, #28, #137 ) ;
#68 = EDGE_CURVE ( 'NONE', #127, #56, #193, .T. ) ;
#69 = APPLICATION_PROTOCOL_DEFINITION ( 'international standard', 'config_control_design', 1994, #140 ) ;
#70 = ORIENTED_EDGE ( 'NONE', *, *, #68, .T. ) ;
#71 = EDGE_CURVE ( 'NONE', #173, #218, #76, .T. ) ;
#72 = APPROVAL_PERSON_ORGANIZATION ( #196, #92, #239 ) ;
#73 = DATE_AND_TIME ( #142, #118 ) ;
#74 = ORIENTED_EDGE ( 'NONE', *, *, #66, .F. ) ;
#75 = AXIS2_PLACEMENT_3D ( 'NONE', #189, #191, #185 ) ;
#76 = LINE ( 'NONE', #153, #89 ) ;
#77 = FACE_OUTER_BOUND ( 'NONE', #100, .T. ) ;
#78 = PLANE ( 'NONE',  #211 ) ;
#79 = DIRECTION ( 'NONE',  ( 1.000000000000000000, 0.000000000000000000, 0.000000000000000000 ) ) ;
#80 = DIRECTION ( 'NONE',  ( -1.000000000000000000, 0.000000000000000000, 0.000000000000000000 ) ) ;
#81 = DIRECTION ( 'NONE',  ( 1.000000000000000000, 0.000000000000000000, -0.000000000000000000 ) ) ;
#82 = ORIENTED_EDGE ( 'NONE', *, *, #71, .T. ) ;
#83 = CARTESIAN_POINT ( 'NONE',  ( 0.000000000000000000, 0.000000000000000000, 405.0000000000000000 ) ) ;
#84 = PRODUCT_DEFINITION_FORMATION_WITH_SPECIFIED_SOURCE ( 'LIBOVOLNÝ', '', #155, .NOT_KNOWN. ) ;
#85 = DIRECTION ( 'NONE',  ( 1.000000000000000000, 0.000000000000000000, 0.000000000000000000 ) ) ;
#86 = ADVANCED_FACE ( 'NONE', ( #242, #179 ), #27, .T. ) ;
#87 = CARTESIAN_POINT ( 'NONE',  ( -6.000000000000000888, 0.000000000000000000, 5.000000000000000000 ) ) ;
#88 = APPROVAL_PERSON_ORGANIZATION ( #126, #154, #172 ) ;
#89 = VECTOR ( 'NONE', #203, 1000.000000000000000 ) ;
#90 = CALENDAR_DATE ( 2022, 7, 7 ) ;
#91 = LOCAL_TIME ( 19, 34, 2.000000000000000000, #143 ) ;
#92 = APPROVAL ( #36, 'NEURÈENÝ' ) ;
#93 = PERSON_AND_ORGANIZATION_ROLE ( 'creator' ) ;
#94 = CC_DESIGN_APPROVAL ( #92, ( #84 ) ) ;
#95 = PERSON_AND_ORGANIZATION_ROLE ( 'design_supplier' ) ;
#96 = LINE ( 'NONE', #37, #152 ) ;
#97 = ORIENTED_EDGE ( 'NONE', *, *, #177, .T. ) ;
#98 = EDGE_LOOP ( 'NONE', ( #59, #176, #45, #70 ) ) ;
#99 = VECTOR ( 'NONE', #30, 1000.000000000000000 ) ;
#100 = EDGE_LOOP ( 'NONE', ( #58, #245 ) ) ;
#101 = ORIENTED_EDGE ( 'NONE', *, *, #184, .F. ) ;
#102 = DIRECTION ( 'NONE',  ( 0.000000000000000000, 0.000000000000000000, 1.000000000000000000 ) ) ;
#103 = FACE_OUTER_BOUND ( 'NONE', #98, .T. ) ;
#104 = CARTESIAN_POINT ( 'NONE',  ( -6.000000000000000888, 0.000000000000000000, 0.000000000000000000 ) ) ;
#105 = CARTESIAN_POINT ( 'NONE',  ( 0.000000000000000000, 0.000000000000000000, 405.0000000000000000 ) ) ;
#106 = CC_DESIGN_PERSON_AND_ORGANIZATION_ASSIGNMENT ( #113, #95, ( #84 ) ) ;
#107 = CIRCLE ( 'NONE', #237, 3.750000000000000000 ) ;
#108 = CC_DESIGN_PERSON_AND_ORGANIZATION_ASSIGNMENT ( #254, #20, ( #222 ) ) ;
#109 = AXIS2_PLACEMENT_3D ( 'NONE', #162, #208, #85 ) ;
#110 = APPLICATION_PROTOCOL_DEFINITION ( 'international standard', 'config_control_design', 1994, #186 ) ;
#111 = APPROVAL_DATE_TIME ( #73, #154 ) ;
#112 = ADVANCED_FACE ( 'NONE', ( #224 ), #39, .T. ) ;
#113 = PERSON_AND_ORGANIZATION ( #125, #247 ) ;
#114 = CC_DESIGN_SECURITY_CLASSIFICATION ( #222, ( #84 ) ) ;
#115 = DIRECTION ( 'NONE',  ( 1.000000000000000000, 0.000000000000000000, 0.000000000000000000 ) ) ;
#116 = DIRECTION ( 'NONE',  ( -0.000000000000000000, -0.000000000000000000, -1.000000000000000000 ) ) ;
#117 = CARTESIAN_POINT ( 'NONE',  ( 3.750000000000000000, 4.592425496802573972E-16, 5.000000000000000000 ) ) ;
#118 = LOCAL_TIME ( 19, 34, 2.000000000000000000, #19 ) ;
#119 = DIRECTION ( 'NONE',  ( 1.000000000000000000, 0.000000000000000000, 0.000000000000000000 ) ) ;
#120 = CARTESIAN_POINT ( 'NONE',  ( -3.750000000000000000, 0.000000000000000000, 405.0000000000000000 ) ) ;
#121 =( NAMED_UNIT ( * ) SI_UNIT ( $, .STERADIAN. ) SOLID_ANGLE_UNIT ( ) );
#122 = CARTESIAN_POINT ( 'NONE',  ( 0.000000000000000000, 0.000000000000000000, 5.000000000000000000 ) ) ;
#123 = DIRECTION ( 'NONE',  ( 0.000000000000000000, 0.000000000000000000, 1.000000000000000000 ) ) ;
#124 = CALENDAR_DATE ( 2022, 7, 7 ) ;
#125 = PERSON ( 'NEURÈENÝ', 'NEURÈENÝ', 'NEURÈENÝ', ('NEURÈENÝ'), ('NEURÈENÝ'), ('NEURÈENÝ') ) ;
#126 = PERSON_AND_ORGANIZATION ( #125, #247 ) ;
#127 = VERTEX_POINT ( 'NONE', #24 ) ;
#128 = ORIENTED_EDGE ( 'NONE', *, *, #184, .T. ) ;
#129 = AXIS2_PLACEMENT_3D ( 'NONE', #9, #131, #81 ) ;
#130 = CARTESIAN_POINT ( 'NONE',  ( 0.000000000000000000, 0.000000000000000000, 5.000000000000000000 ) ) ;
#131 = DIRECTION ( 'NONE',  ( 0.000000000000000000, 0.000000000000000000, 1.000000000000000000 ) ) ;
#132 = APPROVAL ( #234, 'NEURÈENÝ' ) ;
#133 = EDGE_LOOP ( 'NONE', ( #101, #146, #175, #171 ) ) ;
#134 = LINE ( 'NONE', #7, #29 ) ;
#135 = ORIENTED_EDGE ( 'NONE', *, *, #145, .T. ) ;
#136 = CIRCLE ( 'NONE', #109, 6.000000000000000888 ) ;
#137 = DIRECTION ( 'NONE',  ( -1.000000000000000000, 0.000000000000000000, 0.000000000000000000 ) ) ;
#138 = FACE_OUTER_BOUND ( 'NONE', #188, .T. ) ;
#139 = CARTESIAN_POINT ( 'NONE',  ( 0.000000000000000000, 0.000000000000000000, 0.000000000000000000 ) ) ;
#140 = APPLICATION_CONTEXT ( 'configuration controlled 3d designs of mechanical parts and assemblies' ) ;
#141 = ADVANCED_FACE ( 'NONE', ( #77 ), #156, .T. ) ;
#142 = CALENDAR_DATE ( 2022, 7, 7 ) ;
#143 = COORDINATED_UNIVERSAL_TIME_OFFSET ( 1, 0, .AHEAD. ) ;
#144 = DATE_AND_TIME ( #148, #213 ) ;
#145 = EDGE_CURVE ( 'NONE', #218, #41, #32, .T. ) ;
#146 = ORIENTED_EDGE ( 'NONE', *, *, #250, .T. ) ;
#147 = LOCAL_TIME ( 19, 34, 2.000000000000000000, #174 ) ;
#148 = CALENDAR_DATE ( 2022, 7, 7 ) ;
#149 = ORIENTED_EDGE ( 'NONE', *, *, #160, .F. ) ;
#150 = ORIENTED_EDGE ( 'NONE', *, *, #177, .F. ) ;
#151 = CARTESIAN_POINT ( 'NONE',  ( 3.750000000000000000, 4.592425496802573972E-16, 405.0000000000000000 ) ) ;
#152 = VECTOR ( 'NONE', #207, 1000.000000000000000 ) ;
#153 = CARTESIAN_POINT ( 'NONE',  ( -6.000000000000000888, 0.000000000000000000, 5.000000000000000000 ) ) ;
#154 = APPROVAL ( #217, 'NEURÈENÝ' ) ;
#155 = PRODUCT ( '793d', '793d', '', ( #35 ) ) ;
#156 = PLANE ( 'NONE',  #75 ) ;
#157 = DIRECTION ( 'NONE',  ( -0.000000000000000000, -0.000000000000000000, -1.000000000000000000 ) ) ;
#158 = DIRECTION ( 'NONE',  ( 0.000000000000000000, 0.000000000000000000, 1.000000000000000000 ) ) ;
#159 = AXIS2_PLACEMENT_3D ( 'NONE', #83, #13, #80 ) ;
#160 = EDGE_CURVE ( 'NONE', #41, #218, #231, .T. ) ;
#161 =( GEOMETRIC_REPRESENTATION_CONTEXT ( 3 ) GLOBAL_UNCERTAINTY_ASSIGNED_CONTEXT ( ( #61 ) ) GLOBAL_UNIT_ASSIGNED_CONTEXT ( ( #244, #226, #121 ) ) REPRESENTATION_CONTEXT ( 'NONE', 'WORKASPACE' ) );
#162 = CARTESIAN_POINT ( 'NONE',  ( 0.000000000000000000, 0.000000000000000000, 5.000000000000000000 ) ) ;
#163 = CARTESIAN_POINT ( 'NONE',  ( 6.000000000000000888, 7.347880794884120722E-16, 5.000000000000000000 ) ) ;
#164 = CYLINDRICAL_SURFACE ( 'NONE', #67, 6.000000000000000888 ) ;
#165 = ADVANCED_FACE ( 'NONE', ( #43 ), #10, .T. ) ;
#166 = CLOSED_SHELL ( 'NONE', ( #165, #201, #112, #86, #194, #46, #141 ) ) ;
#167 = PERSON_AND_ORGANIZATION ( #125, #247 ) ;
#168 = CC_DESIGN_APPROVAL ( #132, ( #222 ) ) ;
#169 = APPROVAL_DATE_TIME ( #214, #132 ) ;
#170 = SHAPE_DEFINITION_REPRESENTATION ( #206, #255 ) ;
#171 = ORIENTED_EDGE ( 'NONE', *, *, #71, .F. ) ;
#172 = APPROVAL_ROLE ( '' ) ;
#173 = VERTEX_POINT ( 'NONE', #87 ) ;
#174 = COORDINATED_UNIVERSAL_TIME_OFFSET ( 1, 0, .AHEAD. ) ;
#175 = ORIENTED_EDGE ( 'NONE', *, *, #160, .T. ) ;
#176 = ORIENTED_EDGE ( 'NONE', *, *, #253, .F. ) ;
#177 = EDGE_CURVE ( 'NONE', #56, #127, #107, .T. ) ;
#178 = EDGE_LOOP ( 'NONE', ( #241, #238, #82, #135 ) ) ;
#179 = FACE_OUTER_BOUND ( 'NONE', #57, .T. ) ;
#180 = AXIS2_PLACEMENT_3D ( 'NONE', #212, #190, #119 ) ;
#181 = DIRECTION ( 'NONE',  ( 1.000000000000000000, 0.000000000000000000, 0.000000000000000000 ) ) ;
#182 = ORIENTED_EDGE ( 'NONE', *, *, #221, .F. ) ;
#183 = VERTEX_POINT ( 'NONE', #163 ) ;
#184 = EDGE_CURVE ( 'NONE', #183, #173, #136, .T. ) ;
#185 = DIRECTION ( 'NONE',  ( 1.000000000000000000, 0.000000000000000000, -0.000000000000000000 ) ) ;
#186 = APPLICATION_CONTEXT ( 'configuration controlled 3d designs of mechanical parts and assemblies' ) ;
#187 = CARTESIAN_POINT ( 'NONE',  ( 0.000000000000000000, 0.000000000000000000, 405.0000000000000000 ) ) ;
#188 = EDGE_LOOP ( 'NONE', ( #60, #149 ) ) ;
#189 = CARTESIAN_POINT ( 'NONE',  ( 0.000000000000000000, 0.000000000000000000, 405.0000000000000000 ) ) ;
#190 = DIRECTION ( 'NONE',  ( 0.000000000000000000, 0.000000000000000000, 1.000000000000000000 ) ) ;
#191 = DIRECTION ( 'NONE',  ( 0.000000000000000000, 0.000000000000000000, 1.000000000000000000 ) ) ;
#192 = CC_DESIGN_DATE_AND_TIME_ASSIGNMENT ( #15, #235, ( #222 ) ) ;
#193 = CIRCLE ( 'NONE', #215, 3.750000000000000000 ) ;
#194 = ADVANCED_FACE ( 'NONE', ( #138 ), #78, .F. ) ;
#195 = CALENDAR_DATE ( 2022, 7, 7 ) ;
#196 = PERSON_AND_ORGANIZATION ( #125, #247 ) ;
#197 = PERSON_AND_ORGANIZATION ( #125, #247 ) ;
#198 = PRODUCT_RELATED_PRODUCT_CATEGORY ( 'detail', '', ( #155 ) ) ;
#199 = PERSON_AND_ORGANIZATION_ROLE ( 'creator' ) ;
#200 = SECURITY_CLASSIFICATION_LEVEL ( 'unclassified' ) ;
#201 = ADVANCED_FACE ( 'NONE', ( #229 ), #164, .T. ) ;
#202 = EDGE_LOOP ( 'NONE', ( #182, #62, #97, #74 ) ) ;
#203 = DIRECTION ( 'NONE',  ( -0.000000000000000000, -0.000000000000000000, -1.000000000000000000 ) ) ;
#204 = CARTESIAN_POINT ( 'NONE',  ( 0.000000000000000000, 0.000000000000000000, 5.000000000000000000 ) ) ;
#205 = CC_DESIGN_PERSON_AND_ORGANIZATION_ASSIGNMENT ( #167, #199, ( #23 ) ) ;
#206 = PRODUCT_DEFINITION_SHAPE ( 'NONE', 'NONE',  #23 ) ;
#207 = DIRECTION ( 'NONE',  ( -0.000000000000000000, -0.000000000000000000, -1.000000000000000000 ) ) ;
#208 = DIRECTION ( 'NONE',  ( 0.000000000000000000, 0.000000000000000000, 1.000000000000000000 ) ) ;
#209 = AXIS2_PLACEMENT_3D ( 'NONE', #65, #8, #246 ) ;
#210 = DIRECTION ( 'NONE',  ( 1.000000000000000000, 0.000000000000000000, -0.000000000000000000 ) ) ;
#211 = AXIS2_PLACEMENT_3D ( 'NONE', #139, #158, #210 ) ;
#212 = CARTESIAN_POINT ( 'NONE',  ( 0.000000000000000000, 0.000000000000000000, 405.0000000000000000 ) ) ;
#213 = LOCAL_TIME ( 19, 34, 2.000000000000000000, #236 ) ;
#214 = DATE_AND_TIME ( #124, #228 ) ;
#215 = AXIS2_PLACEMENT_3D ( 'NONE', #225, #5, #115 ) ;
#216 = PERSON_AND_ORGANIZATION_ROLE ( 'design_owner' ) ;
#217 = APPROVAL_STATUS ( 'not_yet_approved' ) ;
#218 = VERTEX_POINT ( 'NONE', #104 ) ;
#219 = APPROVAL_DATE_TIME ( #55, #92 ) ;
#220 = CIRCLE ( 'NONE', #40, 6.000000000000000888 ) ;
#221 = EDGE_CURVE ( 'NONE', #3, #54, #233, .T. ) ;
#222 = SECURITY_CLASSIFICATION ( '', '', #200 ) ;
#223 = DIRECTION ( 'NONE',  ( -1.000000000000000000, 0.000000000000000000, 0.000000000000000000 ) ) ;
#224 = FACE_OUTER_BOUND ( 'NONE', #178, .T. ) ;
#225 = CARTESIAN_POINT ( 'NONE',  ( 0.000000000000000000, 0.000000000000000000, 5.000000000000000000 ) ) ;
#226 =( NAMED_UNIT ( * ) PLANE_ANGLE_UNIT ( ) SI_UNIT ( $, .RADIAN. ) );
#227 = CYLINDRICAL_SURFACE ( 'NONE', #1, 3.750000000000000000 ) ;
#228 = LOCAL_TIME ( 19, 34, 2.000000000000000000, #51 ) ;
#229 = FACE_OUTER_BOUND ( 'NONE', #133, .T. ) ;
#230 = EDGE_CURVE ( 'NONE', #3, #56, #134, .T. ) ;
#231 = CIRCLE ( 'NONE', #4, 6.000000000000000888 ) ;
#232 = LINE ( 'NONE', #48, #99 ) ;
#233 = CIRCLE ( 'NONE', #180, 3.750000000000000000 ) ;
#234 = APPROVAL_STATUS ( 'not_yet_approved' ) ;
#235 = DATE_TIME_ROLE ( 'classification_date' ) ;
#236 = COORDINATED_UNIVERSAL_TIME_OFFSET ( 1, 0, .AHEAD. ) ;
#237 = AXIS2_PLACEMENT_3D ( 'NONE', #63, #123, #64 ) ;
#238 = ORIENTED_EDGE ( 'NONE', *, *, #38, .F. ) ;
#239 = APPROVAL_ROLE ( '' ) ;
#240 = AXIS2_PLACEMENT_3D ( 'NONE', #204, #116, #26 ) ;
#241 = ORIENTED_EDGE ( 'NONE', *, *, #250, .F. ) ;
#242 = FACE_BOUND ( 'NONE', #42, .T. ) ;
#243 = ORIENTED_EDGE ( 'NONE', *, *, #68, .F. ) ;
#244 =( LENGTH_UNIT ( ) NAMED_UNIT ( * ) SI_UNIT ( .MILLI., .METRE. ) );
#245 = ORIENTED_EDGE ( 'NONE', *, *, #221, .T. ) ;
#246 = DIRECTION ( 'NONE',  ( 1.000000000000000000, 0.000000000000000000, 0.000000000000000000 ) ) ;
#247 = ORGANIZATION ( 'NEURÈENÝ', 'NEURÈENÝ', '' ) ;
#248 = ORIENTED_EDGE ( 'NONE', *, *, #38, .T. ) ;
#249 = CARTESIAN_POINT ( 'NONE',  ( 0.000000000000000000, 0.000000000000000000, 0.000000000000000000 ) ) ;
#250 = EDGE_CURVE ( 'NONE', #183, #41, #232, .T. ) ;
#251 = DESIGN_CONTEXT ( 'detailed design', #186, 'design' ) ;
#252 = DIRECTION ( 'NONE',  ( 0.000000000000000000, 0.000000000000000000, 1.000000000000000000 ) ) ;
#253 = EDGE_CURVE ( 'NONE', #54, #3, #25, .T. ) ;
#254 = PERSON_AND_ORGANIZATION ( #125, #247 ) ;
#255 = ADVANCED_BREP_SHAPE_REPRESENTATION ( '793d', ( #50, #31 ), #161 ) ;
ENDSEC;
END-ISO-10303-21;
