ISO-10303-21;
HEADER;
FILE_DESCRIPTION (( 'STEP AP203' ),
    '1' );
FILE_NAME ('ef21.STEP',
    '2022-07-07T17:53:42',
    ( '' ),
    ( '' ),
    'SwSTEP 2.0',
    'SolidWorks 2019',
    '' );
FILE_SCHEMA (( 'CONFIG_CONTROL_DESIGN' ));
ENDSEC;

DATA;
#1 = DIRECTION ( 'NONE',  ( -0.000000000000000000, -0.000000000000000000, -1.000000000000000000 ) ) ;
#2 = FACE_OUTER_BOUND ( 'NONE', #109, .T. ) ;
#3 = DIRECTION ( 'NONE',  ( 1.000000000000000000, 0.000000000000000000, 0.000000000000000000 ) ) ;
#4 = CARTESIAN_POINT ( 'NONE',  ( 0.000000000000000000, 0.000000000000000000, 163.0000000000000000 ) ) ;
#5 = ORIENTED_EDGE ( 'NONE', *, *, #67, .F. ) ;
#6 = CARTESIAN_POINT ( 'NONE',  ( 0.000000000000000000, 0.000000000000000000, 0.000000000000000000 ) ) ;
#7 = APPLICATION_CONTEXT ( 'configuration controlled 3d designs of mechanical parts and assemblies' ) ;
#8 = CIRCLE ( 'NONE', #49, 3.500000000000000000 ) ;
#9 = DIRECTION ( 'NONE',  ( 0.000000000000000000, 0.000000000000000000, 1.000000000000000000 ) ) ;
#10 = CIRCLE ( 'NONE', #41, 3.500000000000000000 ) ;
#11 = EDGE_CURVE ( 'NONE', #144, #62, #40, .T. ) ;
#12 = PERSON_AND_ORGANIZATION_ROLE ( 'creator' ) ;
#13 = PERSON_AND_ORGANIZATION_ROLE ( 'design_owner' ) ;
#14 = EDGE_CURVE ( 'NONE', #232, #219, #183, .T. ) ;
#15 = CC_DESIGN_PERSON_AND_ORGANIZATION_ASSIGNMENT ( #120, #61, ( #250 ) ) ;
#16 = CALENDAR_DATE ( 2022, 7, 7 ) ;
#17 = SECURITY_CLASSIFICATION_LEVEL ( 'unclassified' ) ;
#18 = ORIENTED_EDGE ( 'NONE', *, *, #48, .T. ) ;
#19 = ORIENTED_EDGE ( 'NONE', *, *, #47, .F. ) ;
#20 = ORIENTED_EDGE ( 'NONE', *, *, #14, .T. ) ;
#21 = PRODUCT ( 'ef21', 'ef21', '', ( #214 ) ) ;
#22 = EDGE_CURVE ( 'NONE', #219, #144, #97, .T. ) ;
#23 = AXIS2_PLACEMENT_3D ( 'NONE', #98, #94, #164 ) ;
#24 = ADVANCED_FACE ( 'NONE', ( #73 ), #30, .T. ) ;
#25 = CARTESIAN_POINT ( 'NONE',  ( 0.000000000000000000, 0.000000000000000000, 3.000000000000000000 ) ) ;
#26 = CARTESIAN_POINT ( 'NONE',  ( 0.000000000000000000, 0.000000000000000000, 3.000000000000000000 ) ) ;
#27 = DIRECTION ( 'NONE',  ( 1.000000000000000000, 0.000000000000000000, -0.000000000000000000 ) ) ;
#28 = DIRECTION ( 'NONE',  ( 0.000000000000000000, 0.000000000000000000, 1.000000000000000000 ) ) ;
#29 = DIRECTION ( 'NONE',  ( 1.000000000000000000, 0.000000000000000000, 0.000000000000000000 ) ) ;
#30 = CYLINDRICAL_SURFACE ( 'NONE', #23, 3.500000000000000000 ) ;
#31 = CC_DESIGN_APPROVAL ( #175, ( #250 ) ) ;
#32 = CC_DESIGN_SECURITY_CLASSIFICATION ( #37, ( #134 ) ) ;
#33 = ORIENTED_EDGE ( 'NONE', *, *, #48, .F. ) ;
#34 = DIRECTION ( 'NONE',  ( -0.000000000000000000, -0.000000000000000000, -1.000000000000000000 ) ) ;
#35 = EDGE_CURVE ( 'NONE', #53, #155, #8, .T. ) ;
#36 = CALENDAR_DATE ( 2022, 7, 7 ) ;
#37 = SECURITY_CLASSIFICATION ( '', '', #17 ) ;
#38 = PERSON_AND_ORGANIZATION ( #224, #87 ) ;
#39 = APPROVAL_ROLE ( '' ) ;
#40 = CIRCLE ( 'NONE', #205, 1.750000000000000000 ) ;
#41 = AXIS2_PLACEMENT_3D ( 'NONE', #6, #101, #165 ) ;
#42 = COORDINATED_UNIVERSAL_TIME_OFFSET ( 1, 0, .AHEAD. ) ;
#43 = APPROVAL_ROLE ( '' ) ;
#44 = EDGE_LOOP ( 'NONE', ( #217, #197, #70, #170 ) ) ;
#45 = ORIENTED_EDGE ( 'NONE', *, *, #110, .F. ) ;
#46 =( GEOMETRIC_REPRESENTATION_CONTEXT ( 3 ) GLOBAL_UNCERTAINTY_ASSIGNED_CONTEXT ( ( #186 ) ) GLOBAL_UNIT_ASSIGNED_CONTEXT ( ( #177, #99, #225 ) ) REPRESENTATION_CONTEXT ( 'NONE', 'WORKASPACE' ) );
#47 = EDGE_CURVE ( 'NONE', #62, #144, #206, .T. ) ;
#48 = EDGE_CURVE ( 'NONE', #172, #196, #86, .T. ) ;
#49 = AXIS2_PLACEMENT_3D ( 'NONE', #77, #9, #147 ) ;
#50 = APPLICATION_CONTEXT ( 'configuration controlled 3d designs of mechanical parts and assemblies' ) ;
#51 = AXIS2_PLACEMENT_3D ( 'NONE', #131, #133, #159 ) ;
#52 = CARTESIAN_POINT ( 'NONE',  ( 0.000000000000000000, 0.000000000000000000, 3.000000000000000000 ) ) ;
#53 = VERTEX_POINT ( 'NONE', #188 ) ;
#54 = DIRECTION ( 'NONE',  ( 1.000000000000000000, 0.000000000000000000, -0.000000000000000000 ) ) ;
#55 = DIRECTION ( 'NONE',  ( 1.000000000000000000, 0.000000000000000000, 0.000000000000000000 ) ) ;
#56 = AXIS2_PLACEMENT_3D ( 'NONE', #83, #137, #191 ) ;
#57 = APPROVAL ( #251, 'NEURÈENÝ' ) ;
#58 = PERSON_AND_ORGANIZATION ( #224, #87 ) ;
#59 = CARTESIAN_POINT ( 'NONE',  ( 0.000000000000000000, 0.000000000000000000, 0.000000000000000000 ) ) ;
#60 = AXIS2_PLACEMENT_3D ( 'NONE', #4, #93, #95 ) ;
#61 = PERSON_AND_ORGANIZATION_ROLE ( 'creator' ) ;
#62 = VERTEX_POINT ( 'NONE', #104 ) ;
#63 = CALENDAR_DATE ( 2022, 7, 7 ) ;
#64 = APPROVAL_DATE_TIME ( #152, #175 ) ;
#65 = ORIENTED_EDGE ( 'NONE', *, *, #210, .F. ) ;
#66 = ADVANCED_FACE ( 'NONE', ( #249 ), #79, .F. ) ;
#67 = EDGE_CURVE ( 'NONE', #196, #172, #10, .T. ) ;
#68 = PRODUCT_DEFINITION_SHAPE ( 'NONE', 'NONE',  #250 ) ;
#69 = CARTESIAN_POINT ( 'NONE',  ( 3.500000000000000000, 4.286263797015736595E-16, 3.000000000000000000 ) ) ;
#70 = ORIENTED_EDGE ( 'NONE', *, *, #22, .T. ) ;
#71 = DIRECTION ( 'NONE',  ( -0.000000000000000000, -0.000000000000000000, -1.000000000000000000 ) ) ;
#72 = CARTESIAN_POINT ( 'NONE',  ( 3.500000000000000000, 4.286263797015736595E-16, 0.000000000000000000 ) ) ;
#73 = FACE_OUTER_BOUND ( 'NONE', #173, .T. ) ;
#74 = PLANE ( 'NONE',  #198 ) ;
#75 = VECTOR ( 'NONE', #34, 1000.000000000000000 ) ;
#76 = EDGE_CURVE ( 'NONE', #232, #62, #150, .T. ) ;
#77 = CARTESIAN_POINT ( 'NONE',  ( 0.000000000000000000, 0.000000000000000000, 3.000000000000000000 ) ) ;
#78 = LOCAL_TIME ( 19, 53, 42.00000000000000000, #82 ) ;
#79 = PLANE ( 'NONE',  #184 ) ;
#80 = COORDINATED_UNIVERSAL_TIME_OFFSET ( 1, 0, .AHEAD. ) ;
#81 = MANIFOLD_SOLID_BREP ( 'Pøidat vysunutím3', #100 ) ;
#82 = COORDINATED_UNIVERSAL_TIME_OFFSET ( 1, 0, .AHEAD. ) ;
#83 = CARTESIAN_POINT ( 'NONE',  ( 0.000000000000000000, 0.000000000000000000, 0.000000000000000000 ) ) ;
#84 = APPROVAL ( #215, 'NEURÈENÝ' ) ;
#85 = CC_DESIGN_DATE_AND_TIME_ASSIGNMENT ( #216, #247, ( #250 ) ) ;
#86 = CIRCLE ( 'NONE', #199, 3.500000000000000000 ) ;
#87 = ORGANIZATION ( 'NEURÈENÝ', 'NEURÈENÝ', '' ) ;
#88 = CYLINDRICAL_SURFACE ( 'NONE', #51, 1.750000000000000000 ) ;
#89 = ORIENTED_EDGE ( 'NONE', *, *, #22, .F. ) ;
#90 = LINE ( 'NONE', #69, #151 ) ;
#91 = VECTOR ( 'NONE', #243, 1000.000000000000000 ) ;
#92 = EDGE_LOOP ( 'NONE', ( #180, #20 ) ) ;
#93 = DIRECTION ( 'NONE',  ( 0.000000000000000000, 0.000000000000000000, 1.000000000000000000 ) ) ;
#94 = DIRECTION ( 'NONE',  ( -0.000000000000000000, -0.000000000000000000, -1.000000000000000000 ) ) ;
#95 = DIRECTION ( 'NONE',  ( 1.000000000000000000, 0.000000000000000000, 0.000000000000000000 ) ) ;
#96 = CC_DESIGN_PERSON_AND_ORGANIZATION_ASSIGNMENT ( #141, #103, ( #37 ) ) ;
#97 = LINE ( 'NONE', #208, #75 ) ;
#98 = CARTESIAN_POINT ( 'NONE',  ( 0.000000000000000000, 0.000000000000000000, 3.000000000000000000 ) ) ;
#99 =( NAMED_UNIT ( * ) PLANE_ANGLE_UNIT ( ) SI_UNIT ( $, .RADIAN. ) );
#100 = CLOSED_SHELL ( 'NONE', ( #174, #194, #24, #234, #66, #239, #220 ) ) ;
#101 = DIRECTION ( 'NONE',  ( 0.000000000000000000, 0.000000000000000000, 1.000000000000000000 ) ) ;
#102 = AXIS2_PLACEMENT_3D ( 'NONE', #52, #179, #207 ) ;
#103 = PERSON_AND_ORGANIZATION_ROLE ( 'classification_officer' ) ;
#104 = CARTESIAN_POINT ( 'NONE',  ( 1.750000000000000000, 2.143131898507868297E-16, 3.000000000000000000 ) ) ;
#105 = DATE_AND_TIME ( #16, #78 ) ;
#106 = ORIENTED_EDGE ( 'NONE', *, *, #193, .F. ) ;
#107 = LOCAL_TIME ( 19, 53, 42.00000000000000000, #42 ) ;
#108 = ORIENTED_EDGE ( 'NONE', *, *, #67, .T. ) ;
#109 = EDGE_LOOP ( 'NONE', ( #65, #204, #18, #45 ) ) ;
#110 = EDGE_CURVE ( 'NONE', #53, #196, #163, .T. ) ;
#111 = CARTESIAN_POINT ( 'NONE',  ( 3.500000000000000000, 4.286263797015736595E-16, 3.000000000000000000 ) ) ;
#112 = DIRECTION ( 'NONE',  ( 1.000000000000000000, 0.000000000000000000, 0.000000000000000000 ) ) ;
#113 = CARTESIAN_POINT ( 'NONE',  ( -1.750000000000000000, 0.000000000000000000, 163.0000000000000000 ) ) ;
#114 = EDGE_LOOP ( 'NONE', ( #143, #19 ) ) ;
#115 = CARTESIAN_POINT ( 'NONE',  ( 0.000000000000000000, 0.000000000000000000, 163.0000000000000000 ) ) ;
#116 = CC_DESIGN_PERSON_AND_ORGANIZATION_ASSIGNMENT ( #221, #13, ( #21 ) ) ;
#117 = DIRECTION ( 'NONE',  ( 0.000000000000000000, 0.000000000000000000, 1.000000000000000000 ) ) ;
#118 = APPROVAL_PERSON_ORGANIZATION ( #248, #175, #39 ) ;
#119 = CARTESIAN_POINT ( 'NONE',  ( 1.750000000000000000, 2.143131898507868297E-16, 163.0000000000000000 ) ) ;
#120 = PERSON_AND_ORGANIZATION ( #224, #87 ) ;
#121 = DIRECTION ( 'NONE',  ( 0.000000000000000000, 0.000000000000000000, 1.000000000000000000 ) ) ;
#122 = APPROVAL_STATUS ( 'not_yet_approved' ) ;
#123 = CALENDAR_DATE ( 2022, 7, 7 ) ;
#124 = APPROVAL_DATE_TIME ( #189, #84 ) ;
#125 = ORIENTED_EDGE ( 'NONE', *, *, #35, .T. ) ;
#126 = ORIENTED_EDGE ( 'NONE', *, *, #47, .T. ) ;
#127 = AXIS2_PLACEMENT_3D ( 'NONE', #115, #203, #27 ) ;
#128 = FACE_OUTER_BOUND ( 'NONE', #157, .T. ) ;
#129 = EDGE_LOOP ( 'NONE', ( #5, #33 ) ) ;
#130 = FACE_OUTER_BOUND ( 'NONE', #92, .T. ) ;
#131 = CARTESIAN_POINT ( 'NONE',  ( 0.000000000000000000, 0.000000000000000000, 163.0000000000000000 ) ) ;
#132 = DIRECTION ( 'NONE',  ( 0.000000000000000000, 0.000000000000000000, 1.000000000000000000 ) ) ;
#133 = DIRECTION ( 'NONE',  ( -0.000000000000000000, -0.000000000000000000, -1.000000000000000000 ) ) ;
#134 = PRODUCT_DEFINITION_FORMATION_WITH_SPECIFIED_SOURCE ( 'LIBOVOLNÝ', '', #21, .NOT_KNOWN. ) ;
#135 = DIRECTION ( 'NONE',  ( 0.000000000000000000, 0.000000000000000000, 1.000000000000000000 ) ) ;
#136 = SHAPE_DEFINITION_REPRESENTATION ( #68, #167 ) ;
#137 = DIRECTION ( 'NONE',  ( 0.000000000000000000, 0.000000000000000000, 1.000000000000000000 ) ) ;
#138 = COORDINATED_UNIVERSAL_TIME_OFFSET ( 1, 0, .AHEAD. ) ;
#139 = ORIENTED_EDGE ( 'NONE', *, *, #110, .T. ) ;
#140 = CC_DESIGN_PERSON_AND_ORGANIZATION_ASSIGNMENT ( #38, #187, ( #134 ) ) ;
#141 = PERSON_AND_ORGANIZATION ( #224, #87 ) ;
#142 = DESIGN_CONTEXT ( 'detailed design', #7, 'design' ) ;
#143 = ORIENTED_EDGE ( 'NONE', *, *, #11, .F. ) ;
#144 = VERTEX_POINT ( 'NONE', #255 ) ;
#145 = CARTESIAN_POINT ( 'NONE',  ( 0.000000000000000000, 0.000000000000000000, 163.0000000000000000 ) ) ;
#146 = FACE_OUTER_BOUND ( 'NONE', #223, .T. ) ;
#147 = DIRECTION ( 'NONE',  ( 1.000000000000000000, 0.000000000000000000, 0.000000000000000000 ) ) ;
#148 = DIRECTION ( 'NONE',  ( 0.000000000000000000, 0.000000000000000000, 1.000000000000000000 ) ) ;
#149 = DIRECTION ( 'NONE',  ( 1.000000000000000000, 0.000000000000000000, 0.000000000000000000 ) ) ;
#150 = LINE ( 'NONE', #240, #244 ) ;
#151 = VECTOR ( 'NONE', #241, 1000.000000000000000 ) ;
#152 = DATE_AND_TIME ( #123, #107 ) ;
#153 = APPROVAL_DATE_TIME ( #105, #57 ) ;
#154 = COORDINATED_UNIVERSAL_TIME_OFFSET ( 1, 0, .AHEAD. ) ;
#155 = VERTEX_POINT ( 'NONE', #111 ) ;
#156 = CIRCLE ( 'NONE', #60, 1.750000000000000000 ) ;
#157 = EDGE_LOOP ( 'NONE', ( #192, #228, #126, #89 ) ) ;
#158 = CC_DESIGN_APPROVAL ( #84, ( #134 ) ) ;
#159 = DIRECTION ( 'NONE',  ( -1.000000000000000000, 0.000000000000000000, 0.000000000000000000 ) ) ;
#160 = DIRECTION ( 'NONE',  ( -1.000000000000000000, 0.000000000000000000, 0.000000000000000000 ) ) ;
#161 = FACE_BOUND ( 'NONE', #114, .T. ) ;
#162 = CARTESIAN_POINT ( 'NONE',  ( 0.000000000000000000, 0.000000000000000000, 3.000000000000000000 ) ) ;
#163 = LINE ( 'NONE', #209, #91 ) ;
#164 = DIRECTION ( 'NONE',  ( -1.000000000000000000, 0.000000000000000000, 0.000000000000000000 ) ) ;
#165 = DIRECTION ( 'NONE',  ( 1.000000000000000000, 0.000000000000000000, 0.000000000000000000 ) ) ;
#166 = APPLICATION_PROTOCOL_DEFINITION ( 'international standard', 'config_control_design', 1994, #7 ) ;
#167 = ADVANCED_BREP_SHAPE_REPRESENTATION ( 'ef21', ( #81, #56 ), #46 ) ;
#168 = PERSON_AND_ORGANIZATION ( #224, #87 ) ;
#169 = DATE_TIME_ROLE ( 'classification_date' ) ;
#170 = ORIENTED_EDGE ( 'NONE', *, *, #11, .T. ) ;
#171 = DATE_AND_TIME ( #185, #211 ) ;
#172 = VERTEX_POINT ( 'NONE', #72 ) ;
#173 = EDGE_LOOP ( 'NONE', ( #106, #253, #139, #108 ) ) ;
#174 = ADVANCED_FACE ( 'NONE', ( #128 ), #227, .T. ) ;
#175 = APPROVAL ( #122, 'NEURÈENÝ' ) ;
#176 = AXIS2_PLACEMENT_3D ( 'NONE', #202, #117, #112 ) ;
#177 =( LENGTH_UNIT ( ) NAMED_UNIT ( * ) SI_UNIT ( .MILLI., .METRE. ) );
#178 = ORIENTED_EDGE ( 'NONE', *, *, #210, .T. ) ;
#179 = DIRECTION ( 'NONE',  ( -0.000000000000000000, -0.000000000000000000, -1.000000000000000000 ) ) ;
#180 = ORIENTED_EDGE ( 'NONE', *, *, #229, .T. ) ;
#181 = CARTESIAN_POINT ( 'NONE',  ( -3.500000000000000000, 0.000000000000000000, 0.000000000000000000 ) ) ;
#182 = CC_DESIGN_DATE_AND_TIME_ASSIGNMENT ( #171, #169, ( #37 ) ) ;
#183 = CIRCLE ( 'NONE', #176, 1.750000000000000000 ) ;
#184 = AXIS2_PLACEMENT_3D ( 'NONE', #59, #121, #212 ) ;
#185 = CALENDAR_DATE ( 2022, 7, 7 ) ;
#186 = UNCERTAINTY_MEASURE_WITH_UNIT (LENGTH_MEASURE( 1.000000000000000082E-05 ), #177, 'distance_accuracy_value', 'NONE');
#187 = PERSON_AND_ORGANIZATION_ROLE ( 'design_supplier' ) ;
#188 = CARTESIAN_POINT ( 'NONE',  ( -3.500000000000000000, 0.000000000000000000, 3.000000000000000000 ) ) ;
#189 = DATE_AND_TIME ( #63, #252 ) ;
#190 = APPROVAL_PERSON_ORGANIZATION ( #58, #84, #236 ) ;
#191 = DIRECTION ( 'NONE',  ( 1.000000000000000000, 0.000000000000000000, 0.000000000000000000 ) ) ;
#192 = ORIENTED_EDGE ( 'NONE', *, *, #14, .F. ) ;
#193 = EDGE_CURVE ( 'NONE', #155, #172, #90, .T. ) ;
#194 = ADVANCED_FACE ( 'NONE', ( #2 ), #226, .T. ) ;
#195 = AXIS2_PLACEMENT_3D ( 'NONE', #162, #135, #149 ) ;
#196 = VERTEX_POINT ( 'NONE', #181 ) ;
#197 = ORIENTED_EDGE ( 'NONE', *, *, #229, .F. ) ;
#198 = AXIS2_PLACEMENT_3D ( 'NONE', #25, #148, #54 ) ;
#199 = AXIS2_PLACEMENT_3D ( 'NONE', #213, #230, #3 ) ;
#200 = PLANE ( 'NONE',  #127 ) ;
#201 = CIRCLE ( 'NONE', #237, 3.500000000000000000 ) ;
#202 = CARTESIAN_POINT ( 'NONE',  ( 0.000000000000000000, 0.000000000000000000, 163.0000000000000000 ) ) ;
#203 = DIRECTION ( 'NONE',  ( 0.000000000000000000, 0.000000000000000000, 1.000000000000000000 ) ) ;
#204 = ORIENTED_EDGE ( 'NONE', *, *, #193, .T. ) ;
#205 = AXIS2_PLACEMENT_3D ( 'NONE', #26, #132, #29 ) ;
#206 = CIRCLE ( 'NONE', #195, 1.750000000000000000 ) ;
#207 = DIRECTION ( 'NONE',  ( -1.000000000000000000, 0.000000000000000000, 0.000000000000000000 ) ) ;
#208 = CARTESIAN_POINT ( 'NONE',  ( -1.750000000000000000, 0.000000000000000000, 163.0000000000000000 ) ) ;
#209 = CARTESIAN_POINT ( 'NONE',  ( -3.500000000000000000, 0.000000000000000000, 3.000000000000000000 ) ) ;
#210 = EDGE_CURVE ( 'NONE', #155, #53, #201, .T. ) ;
#211 = LOCAL_TIME ( 19, 53, 42.00000000000000000, #154 ) ;
#212 = DIRECTION ( 'NONE',  ( 1.000000000000000000, 0.000000000000000000, -0.000000000000000000 ) ) ;
#213 = CARTESIAN_POINT ( 'NONE',  ( 0.000000000000000000, 0.000000000000000000, 0.000000000000000000 ) ) ;
#214 = MECHANICAL_CONTEXT ( 'NONE', #50, 'mechanical' ) ;
#215 = APPROVAL_STATUS ( 'not_yet_approved' ) ;
#216 = DATE_AND_TIME ( #36, #238 ) ;
#217 = ORIENTED_EDGE ( 'NONE', *, *, #76, .F. ) ;
#218 = APPLICATION_PROTOCOL_DEFINITION ( 'international standard', 'config_control_design', 1994, #50 ) ;
#219 = VERTEX_POINT ( 'NONE', #113 ) ;
#220 = ADVANCED_FACE ( 'NONE', ( #130 ), #200, .T. ) ;
#221 = PERSON_AND_ORGANIZATION ( #224, #87 ) ;
#222 = CC_DESIGN_APPROVAL ( #57, ( #37 ) ) ;
#223 = EDGE_LOOP ( 'NONE', ( #125, #178 ) ) ;
#224 = PERSON ( 'NEURÈENÝ', 'NEURÈENÝ', 'NEURÈENÝ', ('NEURÈENÝ'), ('NEURÈENÝ'), ('NEURÈENÝ') ) ;
#225 =( NAMED_UNIT ( * ) SI_UNIT ( $, .STERADIAN. ) SOLID_ANGLE_UNIT ( ) );
#226 = CYLINDRICAL_SURFACE ( 'NONE', #102, 3.500000000000000000 ) ;
#227 = CYLINDRICAL_SURFACE ( 'NONE', #246, 1.750000000000000000 ) ;
#228 = ORIENTED_EDGE ( 'NONE', *, *, #76, .T. ) ;
#229 = EDGE_CURVE ( 'NONE', #219, #232, #156, .T. ) ;
#230 = DIRECTION ( 'NONE',  ( 0.000000000000000000, 0.000000000000000000, 1.000000000000000000 ) ) ;
#231 = CARTESIAN_POINT ( 'NONE',  ( 0.000000000000000000, 0.000000000000000000, 3.000000000000000000 ) ) ;
#232 = VERTEX_POINT ( 'NONE', #119 ) ;
#233 = PERSON_AND_ORGANIZATION ( #224, #87 ) ;
#234 = ADVANCED_FACE ( 'NONE', ( #161, #146 ), #74, .T. ) ;
#235 = CC_DESIGN_PERSON_AND_ORGANIZATION_ASSIGNMENT ( #233, #12, ( #134 ) ) ;
#236 = APPROVAL_ROLE ( '' ) ;
#237 = AXIS2_PLACEMENT_3D ( 'NONE', #231, #28, #55 ) ;
#238 = LOCAL_TIME ( 19, 53, 42.00000000000000000, #138 ) ;
#239 = ADVANCED_FACE ( 'NONE', ( #245 ), #88, .T. ) ;
#240 = CARTESIAN_POINT ( 'NONE',  ( 1.750000000000000000, 2.143131898507868297E-16, 163.0000000000000000 ) ) ;
#241 = DIRECTION ( 'NONE',  ( -0.000000000000000000, -0.000000000000000000, -1.000000000000000000 ) ) ;
#242 = APPROVAL_PERSON_ORGANIZATION ( #168, #57, #43 ) ;
#243 = DIRECTION ( 'NONE',  ( -0.000000000000000000, -0.000000000000000000, -1.000000000000000000 ) ) ;
#244 = VECTOR ( 'NONE', #71, 1000.000000000000000 ) ;
#245 = FACE_OUTER_BOUND ( 'NONE', #44, .T. ) ;
#246 = AXIS2_PLACEMENT_3D ( 'NONE', #145, #1, #160 ) ;
#247 = DATE_TIME_ROLE ( 'creation_date' ) ;
#248 = PERSON_AND_ORGANIZATION ( #224, #87 ) ;
#249 = FACE_OUTER_BOUND ( 'NONE', #129, .T. ) ;
#250 = PRODUCT_DEFINITION ( 'NEZNÁMÝ', '', #134, #142 ) ;
#251 = APPROVAL_STATUS ( 'not_yet_approved' ) ;
#252 = LOCAL_TIME ( 19, 53, 42.00000000000000000, #80 ) ;
#253 = ORIENTED_EDGE ( 'NONE', *, *, #35, .F. ) ;
#254 = PRODUCT_RELATED_PRODUCT_CATEGORY ( 'detail', '', ( #21 ) ) ;
#255 = CARTESIAN_POINT ( 'NONE',  ( -1.750000000000000000, 0.000000000000000000, 3.000000000000000000 ) ) ;
ENDSEC;
END-ISO-10303-21;
