ISO-10303-21;
HEADER;
FILE_DESCRIPTION (( 'STEP AP203' ),
    '1' );
FILE_NAME ('9e01.STEP',
    '2023-02-13T14:53:37',
    ( '' ),
    ( '' ),
    'SwSTEP 2.0',
    'SolidWorks 2019',
    '' );
FILE_SCHEMA (( 'CONFIG_CONTROL_DESIGN' ));
ENDSEC;

DATA;
#1 = CLOSED_SHELL ( 'NONE', ( #77, #23, #109, #243, #9, #132, #211 ) ) ;
#2 = CARTESIAN_POINT ( 'NONE',  ( 0.000000000000000000, 0.000000000000000000, 5.000000000000000000 ) ) ;
#3 = DIRECTION ( 'NONE',  ( 0.000000000000000000, 0.000000000000000000, 1.000000000000000000 ) ) ;
#4 = DIRECTION ( 'NONE',  ( 0.000000000000000000, 0.000000000000000000, 1.000000000000000000 ) ) ;
#5 = DATE_AND_TIME ( #105, #84 ) ;
#6 = CALENDAR_DATE ( 2023, 13, 2 ) ;
#7 = DIRECTION ( 'NONE',  ( 1.000000000000000000, 0.000000000000000000, 0.000000000000000000 ) ) ;
#8 = ORIENTED_EDGE ( 'NONE', *, *, #202, .T. ) ;
#9 = ADVANCED_FACE ( 'NONE', ( #149 ), #193, .F. ) ;
#10 = SECURITY_CLASSIFICATION_LEVEL ( 'unclassified' ) ;
#11 = ORIENTED_EDGE ( 'NONE', *, *, #153, .F. ) ;
#12 = VECTOR ( 'NONE', #52, 1000.000000000000000 ) ;
#13 = VERTEX_POINT ( 'NONE', #87 ) ;
#14 = ORIENTED_EDGE ( 'NONE', *, *, #199, .T. ) ;
#15 = ORIENTED_EDGE ( 'NONE', *, *, #153, .T. ) ;
#16 = DIRECTION ( 'NONE',  ( -1.000000000000000000, 0.000000000000000000, 0.000000000000000000 ) ) ;
#17 = PLANE ( 'NONE',  #141 ) ;
#18 = FACE_OUTER_BOUND ( 'NONE', #92, .T. ) ;
#19 = DIRECTION ( 'NONE',  ( -0.000000000000000000, -0.000000000000000000, -1.000000000000000000 ) ) ;
#20 = DIRECTION ( 'NONE',  ( 0.000000000000000000, 0.000000000000000000, 1.000000000000000000 ) ) ;
#21 = PERSON_AND_ORGANIZATION ( #146, #56 ) ;
#22 = COORDINATED_UNIVERSAL_TIME_OFFSET ( 1, 0, .AHEAD. ) ;
#23 = ADVANCED_FACE ( 'NONE', ( #164 ), #127, .T. ) ;
#24 = ORIENTED_EDGE ( 'NONE', *, *, #98, .F. ) ;
#25 = ORIENTED_EDGE ( 'NONE', *, *, #235, .F. ) ;
#26 = AXIS2_PLACEMENT_3D ( 'NONE', #210, #249, #16 ) ;
#27 = CARTESIAN_POINT ( 'NONE',  ( 0.000000000000000000, 0.000000000000000000, 5.000000000000000000 ) ) ;
#28 = AXIS2_PLACEMENT_3D ( 'NONE', #2, #20, #34 ) ;
#29 = SECURITY_CLASSIFICATION ( '', '', #10 ) ;
#30 = ORIENTED_EDGE ( 'NONE', *, *, #98, .T. ) ;
#31 = CARTESIAN_POINT ( 'NONE',  ( 0.000000000000000000, 0.000000000000000000, 125.0000000000000000 ) ) ;
#32 = APPROVAL ( #59, 'NEURÈENÝ' ) ;
#33 = PRODUCT ( '9e01', '9e01', '', ( #124 ) ) ;
#34 = DIRECTION ( 'NONE',  ( 1.000000000000000000, 0.000000000000000000, 0.000000000000000000 ) ) ;
#35 = DIRECTION ( 'NONE',  ( 1.000000000000000000, 0.000000000000000000, 0.000000000000000000 ) ) ;
#36 = CARTESIAN_POINT ( 'NONE',  ( 3.250000000000000444, 3.980102097228898231E-16, 5.000000000000000000 ) ) ;
#37 = LINE ( 'NONE', #119, #40 ) ;
#38 = CARTESIAN_POINT ( 'NONE',  ( 0.000000000000000000, 0.000000000000000000, 125.0000000000000000 ) ) ;
#39 = EDGE_CURVE ( 'NONE', #48, #93, #142, .T. ) ;
#40 = VECTOR ( 'NONE', #76, 1000.000000000000000 ) ;
#41 = PERSON_AND_ORGANIZATION_ROLE ( 'creator' ) ;
#42 = DATE_AND_TIME ( #157, #192 ) ;
#43 = VECTOR ( 'NONE', #151, 1000.000000000000000 ) ;
#44 = EDGE_LOOP ( 'NONE', ( #185, #64, #111, #251 ) ) ;
#45 = EDGE_LOOP ( 'NONE', ( #11, #90 ) ) ;
#46 = ORIENTED_EDGE ( 'NONE', *, *, #235, .T. ) ;
#47 = CYLINDRICAL_SURFACE ( 'NONE', #60, 3.250000000000000444 ) ;
#48 = VERTEX_POINT ( 'NONE', #150 ) ;
#49 = LINE ( 'NONE', #113, #231 ) ;
#50 = DIRECTION ( 'NONE',  ( 0.000000000000000000, 0.000000000000000000, 1.000000000000000000 ) ) ;
#51 = ADVANCED_BREP_SHAPE_REPRESENTATION ( '9e01', ( #237, #100 ), #223 ) ;
#52 = DIRECTION ( 'NONE',  ( -0.000000000000000000, -0.000000000000000000, -1.000000000000000000 ) ) ;
#53 = APPROVAL ( #188, 'NEURÈENÝ' ) ;
#54 = FACE_BOUND ( 'NONE', #45, .T. ) ;
#55 = CARTESIAN_POINT ( 'NONE',  ( -6.000000000000000888, 0.000000000000000000, 5.000000000000000000 ) ) ;
#56 = ORGANIZATION ( 'NEURÈENÝ', 'NEURÈENÝ', '' ) ;
#57 = CARTESIAN_POINT ( 'NONE',  ( 0.000000000000000000, 0.000000000000000000, 0.000000000000000000 ) ) ;
#58 = COORDINATED_UNIVERSAL_TIME_OFFSET ( 1, 0, .AHEAD. ) ;
#59 = APPROVAL_STATUS ( 'not_yet_approved' ) ;
#60 = AXIS2_PLACEMENT_3D ( 'NONE', #129, #215, #173 ) ;
#61 = EDGE_CURVE ( 'NONE', #162, #130, #244, .T. ) ;
#62 = PERSON_AND_ORGANIZATION ( #146, #56 ) ;
#63 = DATE_AND_TIME ( #161, #80 ) ;
#64 = ORIENTED_EDGE ( 'NONE', *, *, #86, .T. ) ;
#65 = EDGE_LOOP ( 'NONE', ( #126, #14, #46, #24 ) ) ;
#66 = DIRECTION ( 'NONE',  ( 0.000000000000000000, 0.000000000000000000, 1.000000000000000000 ) ) ;
#67 = AXIS2_PLACEMENT_3D ( 'NONE', #27, #66, #148 ) ;
#68 = ORIENTED_EDGE ( 'NONE', *, *, #220, .F. ) ;
#69 = DIRECTION ( 'NONE',  ( 1.000000000000000000, 0.000000000000000000, 0.000000000000000000 ) ) ;
#70 = LINE ( 'NONE', #176, #43 ) ;
#71 = AXIS2_PLACEMENT_3D ( 'NONE', #38, #174, #201 ) ;
#72 = DIRECTION ( 'NONE',  ( 0.000000000000000000, 0.000000000000000000, 1.000000000000000000 ) ) ;
#73 = CC_DESIGN_PERSON_AND_ORGANIZATION_ASSIGNMENT ( #209, #226, ( #104 ) ) ;
#74 = PRODUCT_DEFINITION_FORMATION_WITH_SPECIFIED_SOURCE ( 'LIBOVOLNÝ', '', #33, .NOT_KNOWN. ) ;
#75 = DIRECTION ( 'NONE',  ( 0.000000000000000000, 0.000000000000000000, 1.000000000000000000 ) ) ;
#76 = DIRECTION ( 'NONE',  ( -0.000000000000000000, -0.000000000000000000, -1.000000000000000000 ) ) ;
#77 = ADVANCED_FACE ( 'NONE', ( #230 ), #47, .T. ) ;
#78 = DIRECTION ( 'NONE',  ( 1.000000000000000000, 0.000000000000000000, 0.000000000000000000 ) ) ;
#79 = CIRCLE ( 'NONE', #28, 3.250000000000000444 ) ;
#80 = LOCAL_TIME ( 15, 53, 37.00000000000000000, #182 ) ;
#81 = PERSON_AND_ORGANIZATION ( #146, #56 ) ;
#82 = COORDINATED_UNIVERSAL_TIME_OFFSET ( 1, 0, .AHEAD. ) ;
#83 = AXIS2_PLACEMENT_3D ( 'NONE', #219, #4, #35 ) ;
#84 = LOCAL_TIME ( 15, 53, 37.00000000000000000, #22 ) ;
#85 = PERSON_AND_ORGANIZATION ( #146, #56 ) ;
#86 = EDGE_CURVE ( 'NONE', #48, #107, #70, .T. ) ;
#87 = CARTESIAN_POINT ( 'NONE',  ( -6.000000000000000888, 0.000000000000000000, 0.000000000000000000 ) ) ;
#88 = APPROVAL_PERSON_ORGANIZATION ( #204, #147, #138 ) ;
#89 = ORIENTED_EDGE ( 'NONE', *, *, #199, .F. ) ;
#90 = ORIENTED_EDGE ( 'NONE', *, *, #180, .F. ) ;
#91 = APPLICATION_CONTEXT ( 'configuration controlled 3d designs of mechanical parts and assemblies' ) ;
#92 = EDGE_LOOP ( 'NONE', ( #195, #189 ) ) ;
#93 = VERTEX_POINT ( 'NONE', #253 ) ;
#94 = APPROVAL_PERSON_ORGANIZATION ( #81, #53, #122 ) ;
#95 = DIRECTION ( 'NONE',  ( 1.000000000000000000, 0.000000000000000000, -0.000000000000000000 ) ) ;
#96 = CARTESIAN_POINT ( 'NONE',  ( 0.000000000000000000, 0.000000000000000000, 125.0000000000000000 ) ) ;
#97 = CARTESIAN_POINT ( 'NONE',  ( 0.000000000000000000, 0.000000000000000000, 0.000000000000000000 ) ) ;
#98 = EDGE_CURVE ( 'NONE', #162, #13, #178, .T. ) ;
#99 = CARTESIAN_POINT ( 'NONE',  ( 0.000000000000000000, 0.000000000000000000, 5.000000000000000000 ) ) ;
#100 = AXIS2_PLACEMENT_3D ( 'NONE', #57, #184, #7 ) ;
#101 = DATE_TIME_ROLE ( 'classification_date' ) ;
#102 = PERSON_AND_ORGANIZATION_ROLE ( 'design_supplier' ) ;
#103 = DESIGN_CONTEXT ( 'detailed design', #175, 'design' ) ;
#104 = PRODUCT_DEFINITION ( 'NEZNÁMÝ', '', #74, #103 ) ;
#105 = CALENDAR_DATE ( 2023, 13, 2 ) ;
#106 = APPLICATION_PROTOCOL_DEFINITION ( 'international standard', 'config_control_design', 1994, #91 ) ;
#107 = VERTEX_POINT ( 'NONE', #36 ) ;
#108 = AXIS2_PLACEMENT_3D ( 'NONE', #97, #75, #239 ) ;
#109 = ADVANCED_FACE ( 'NONE', ( #134 ), #155, .T. ) ;
#110 = ORIENTED_EDGE ( 'NONE', *, *, #61, .T. ) ;
#111 = ORIENTED_EDGE ( 'NONE', *, *, #180, .T. ) ;
#112 = EDGE_LOOP ( 'NONE', ( #169, #25 ) ) ;
#113 = CARTESIAN_POINT ( 'NONE',  ( -3.250000000000000444, 0.000000000000000000, 125.0000000000000000 ) ) ;
#114 = APPROVAL_PERSON_ORGANIZATION ( #140, #32, #144 ) ;
#115 = CC_DESIGN_DATE_AND_TIME_ASSIGNMENT ( #246, #121, ( #104 ) ) ;
#116 = CARTESIAN_POINT ( 'NONE',  ( -6.000000000000000888, 0.000000000000000000, 5.000000000000000000 ) ) ;
#117 = DIRECTION ( 'NONE',  ( 0.000000000000000000, 0.000000000000000000, 1.000000000000000000 ) ) ;
#118 = CIRCLE ( 'NONE', #152, 3.250000000000000444 ) ;
#119 = CARTESIAN_POINT ( 'NONE',  ( 6.000000000000000888, 7.347880794884120722E-16, 5.000000000000000000 ) ) ;
#120 = DIRECTION ( 'NONE',  ( -1.000000000000000000, 0.000000000000000000, 0.000000000000000000 ) ) ;
#121 = DATE_TIME_ROLE ( 'creation_date' ) ;
#122 = APPROVAL_ROLE ( '' ) ;
#123 = APPROVAL_DATE_TIME ( #160, #32 ) ;
#124 = MECHANICAL_CONTEXT ( 'NONE', #91, 'mechanical' ) ;
#125 = CC_DESIGN_DATE_AND_TIME_ASSIGNMENT ( #63, #101, ( #29 ) ) ;
#126 = ORIENTED_EDGE ( 'NONE', *, *, #202, .F. ) ;
#127 = CYLINDRICAL_SURFACE ( 'NONE', #26, 6.000000000000000888 ) ;
#128 = VERTEX_POINT ( 'NONE', #233 ) ;
#129 = CARTESIAN_POINT ( 'NONE',  ( 0.000000000000000000, 0.000000000000000000, 125.0000000000000000 ) ) ;
#130 = VERTEX_POINT ( 'NONE', #179 ) ;
#131 = DIRECTION ( 'NONE',  ( 1.000000000000000000, 0.000000000000000000, 0.000000000000000000 ) ) ;
#132 = ADVANCED_FACE ( 'NONE', ( #224 ), #222, .T. ) ;
#133 = CARTESIAN_POINT ( 'NONE',  ( 0.000000000000000000, 0.000000000000000000, 125.0000000000000000 ) ) ;
#134 = FACE_OUTER_BOUND ( 'NONE', #194, .T. ) ;
#135 = FACE_OUTER_BOUND ( 'NONE', #190, .T. ) ;
#136 = PLANE ( 'NONE',  #205 ) ;
#137 = PERSON_AND_ORGANIZATION_ROLE ( 'design_owner' ) ;
#138 = APPROVAL_ROLE ( '' ) ;
#139 = PRODUCT_RELATED_PRODUCT_CATEGORY ( 'detail', '', ( #33 ) ) ;
#140 = PERSON_AND_ORGANIZATION ( #146, #56 ) ;
#141 = AXIS2_PLACEMENT_3D ( 'NONE', #255, #72, #95 ) ;
#142 = CIRCLE ( 'NONE', #218, 3.250000000000000444 ) ;
#143 = CC_DESIGN_APPROVAL ( #147, ( #74 ) ) ;
#144 = APPROVAL_ROLE ( '' ) ;
#145 = ORIENTED_EDGE ( 'NONE', *, *, #159, .T. ) ;
#146 = PERSON ( 'NEURÈENÝ', 'NEURÈENÝ', 'NEURÈENÝ', ('NEURÈENÝ'), ('NEURÈENÝ'), ('NEURÈENÝ') ) ;
#147 = APPROVAL ( #207, 'NEURÈENÝ' ) ;
#148 = DIRECTION ( 'NONE',  ( 1.000000000000000000, 0.000000000000000000, 0.000000000000000000 ) ) ;
#149 = FACE_OUTER_BOUND ( 'NONE', #112, .T. ) ;
#150 = CARTESIAN_POINT ( 'NONE',  ( 3.250000000000000444, 3.980102097228898231E-16, 125.0000000000000000 ) ) ;
#151 = DIRECTION ( 'NONE',  ( -0.000000000000000000, -0.000000000000000000, -1.000000000000000000 ) ) ;
#152 = AXIS2_PLACEMENT_3D ( 'NONE', #154, #50, #131 ) ;
#153 = EDGE_CURVE ( 'NONE', #171, #107, #118, .T. ) ;
#154 = CARTESIAN_POINT ( 'NONE',  ( 0.000000000000000000, 0.000000000000000000, 5.000000000000000000 ) ) ;
#155 = CYLINDRICAL_SURFACE ( 'NONE', #234, 6.000000000000000888 ) ;
#156 = AXIS2_PLACEMENT_3D ( 'NONE', #133, #217, #120 ) ;
#157 = CALENDAR_DATE ( 2023, 13, 2 ) ;
#158 = CALENDAR_DATE ( 2023, 13, 2 ) ;
#159 = EDGE_CURVE ( 'NONE', #13, #128, #196, .T. ) ;
#160 = DATE_AND_TIME ( #6, #177 ) ;
#161 = CALENDAR_DATE ( 2023, 13, 2 ) ;
#162 = VERTEX_POINT ( 'NONE', #116 ) ;
#163 = PERSON_AND_ORGANIZATION_ROLE ( 'classification_officer' ) ;
#164 = FACE_OUTER_BOUND ( 'NONE', #65, .T. ) ;
#165 = CIRCLE ( 'NONE', #214, 6.000000000000000888 ) ;
#166 = CC_DESIGN_SECURITY_CLASSIFICATION ( #29, ( #74 ) ) ;
#167 = ORIENTED_EDGE ( 'NONE', *, *, #225, .T. ) ;
#168 = CC_DESIGN_PERSON_AND_ORGANIZATION_ASSIGNMENT ( #85, #137, ( #33 ) ) ;
#169 = ORIENTED_EDGE ( 'NONE', *, *, #159, .F. ) ;
#170 = UNCERTAINTY_MEASURE_WITH_UNIT (LENGTH_MEASURE( 1.000000000000000082E-05 ), #203, 'distance_accuracy_value', 'NONE');
#171 = VERTEX_POINT ( 'NONE', #238 ) ;
#172 = CC_DESIGN_PERSON_AND_ORGANIZATION_ASSIGNMENT ( #186, #102, ( #74 ) ) ;
#173 = DIRECTION ( 'NONE',  ( -1.000000000000000000, 0.000000000000000000, 0.000000000000000000 ) ) ;
#174 = DIRECTION ( 'NONE',  ( 0.000000000000000000, 0.000000000000000000, 1.000000000000000000 ) ) ;
#175 = APPLICATION_CONTEXT ( 'configuration controlled 3d designs of mechanical parts and assemblies' ) ;
#176 = CARTESIAN_POINT ( 'NONE',  ( 3.250000000000000444, 3.980102097228898231E-16, 125.0000000000000000 ) ) ;
#177 = LOCAL_TIME ( 15, 53, 37.00000000000000000, #183 ) ;
#178 = LINE ( 'NONE', #55, #12 ) ;
#179 = CARTESIAN_POINT ( 'NONE',  ( 6.000000000000000888, 7.347880794884120722E-16, 5.000000000000000000 ) ) ;
#180 = EDGE_CURVE ( 'NONE', #107, #171, #79, .T. ) ;
#181 = CC_DESIGN_PERSON_AND_ORGANIZATION_ASSIGNMENT ( #21, #163, ( #29 ) ) ;
#182 = COORDINATED_UNIVERSAL_TIME_OFFSET ( 1, 0, .AHEAD. ) ;
#183 = COORDINATED_UNIVERSAL_TIME_OFFSET ( 1, 0, .AHEAD. ) ;
#184 = DIRECTION ( 'NONE',  ( 0.000000000000000000, 0.000000000000000000, 1.000000000000000000 ) ) ;
#185 = ORIENTED_EDGE ( 'NONE', *, *, #39, .F. ) ;
#186 = PERSON_AND_ORGANIZATION ( #146, #56 ) ;
#187 = CC_DESIGN_APPROVAL ( #32, ( #29 ) ) ;
#188 = APPROVAL_STATUS ( 'not_yet_approved' ) ;
#189 = ORIENTED_EDGE ( 'NONE', *, *, #39, .T. ) ;
#190 = EDGE_LOOP ( 'NONE', ( #110, #8 ) ) ;
#191 = CIRCLE ( 'NONE', #71, 3.250000000000000444 ) ;
#192 = LOCAL_TIME ( 15, 53, 37.00000000000000000, #58 ) ;
#193 = PLANE ( 'NONE',  #247 ) ;
#194 = EDGE_LOOP ( 'NONE', ( #89, #248, #30, #145 ) ) ;
#195 = ORIENTED_EDGE ( 'NONE', *, *, #220, .T. ) ;
#196 = CIRCLE ( 'NONE', #83, 6.000000000000000888 ) ;
#197 = LOCAL_TIME ( 15, 53, 37.00000000000000000, #82 ) ;
#198 = DIRECTION ( 'NONE',  ( 1.000000000000000000, 0.000000000000000000, -0.000000000000000000 ) ) ;
#199 = EDGE_CURVE ( 'NONE', #130, #128, #37, .T. ) ;
#200 = CARTESIAN_POINT ( 'NONE',  ( 0.000000000000000000, 0.000000000000000000, 5.000000000000000000 ) ) ;
#201 = DIRECTION ( 'NONE',  ( 1.000000000000000000, 0.000000000000000000, 0.000000000000000000 ) ) ;
#202 = EDGE_CURVE ( 'NONE', #130, #162, #165, .T. ) ;
#203 =( LENGTH_UNIT ( ) NAMED_UNIT ( * ) SI_UNIT ( .MILLI., .METRE. ) );
#204 = PERSON_AND_ORGANIZATION ( #146, #56 ) ;
#205 = AXIS2_PLACEMENT_3D ( 'NONE', #96, #117, #198 ) ;
#206 = APPROVAL_DATE_TIME ( #42, #53 ) ;
#207 = APPROVAL_STATUS ( 'not_yet_approved' ) ;
#208 = PRODUCT_DEFINITION_SHAPE ( 'NONE', 'NONE',  #104 ) ;
#209 = PERSON_AND_ORGANIZATION ( #146, #56 ) ;
#210 = CARTESIAN_POINT ( 'NONE',  ( 0.000000000000000000, 0.000000000000000000, 5.000000000000000000 ) ) ;
#211 = ADVANCED_FACE ( 'NONE', ( #18 ), #136, .T. ) ;
#212 = ORIENTED_EDGE ( 'NONE', *, *, #86, .F. ) ;
#213 = CARTESIAN_POINT ( 'NONE',  ( 0.000000000000000000, 0.000000000000000000, 0.000000000000000000 ) ) ;
#214 = AXIS2_PLACEMENT_3D ( 'NONE', #200, #3, #78 ) ;
#215 = DIRECTION ( 'NONE',  ( -0.000000000000000000, -0.000000000000000000, -1.000000000000000000 ) ) ;
#216 = DIRECTION ( 'NONE',  ( 1.000000000000000000, 0.000000000000000000, -0.000000000000000000 ) ) ;
#217 = DIRECTION ( 'NONE',  ( -0.000000000000000000, -0.000000000000000000, -1.000000000000000000 ) ) ;
#218 = AXIS2_PLACEMENT_3D ( 'NONE', #31, #252, #69 ) ;
#219 = CARTESIAN_POINT ( 'NONE',  ( 0.000000000000000000, 0.000000000000000000, 0.000000000000000000 ) ) ;
#220 = EDGE_CURVE ( 'NONE', #93, #48, #191, .T. ) ;
#221 = DIRECTION ( 'NONE',  ( -1.000000000000000000, 0.000000000000000000, 0.000000000000000000 ) ) ;
#222 = CYLINDRICAL_SURFACE ( 'NONE', #156, 3.250000000000000444 ) ;
#223 =( GEOMETRIC_REPRESENTATION_CONTEXT ( 3 ) GLOBAL_UNCERTAINTY_ASSIGNED_CONTEXT ( ( #170 ) ) GLOBAL_UNIT_ASSIGNED_CONTEXT ( ( #203, #236, #240 ) ) REPRESENTATION_CONTEXT ( 'NONE', 'WORKASPACE' ) );
#224 = FACE_OUTER_BOUND ( 'NONE', #229, .T. ) ;
#225 = EDGE_CURVE ( 'NONE', #93, #171, #49, .T. ) ;
#226 = PERSON_AND_ORGANIZATION_ROLE ( 'creator' ) ;
#227 = CIRCLE ( 'NONE', #108, 6.000000000000000888 ) ;
#228 = APPLICATION_PROTOCOL_DEFINITION ( 'international standard', 'config_control_design', 1994, #175 ) ;
#229 = EDGE_LOOP ( 'NONE', ( #212, #68, #167, #15 ) ) ;
#230 = FACE_OUTER_BOUND ( 'NONE', #44, .T. ) ;
#231 = VECTOR ( 'NONE', #19, 1000.000000000000000 ) ;
#232 = DIRECTION ( 'NONE',  ( -0.000000000000000000, -0.000000000000000000, -1.000000000000000000 ) ) ;
#233 = CARTESIAN_POINT ( 'NONE',  ( 6.000000000000000888, 7.347880794884120722E-16, 0.000000000000000000 ) ) ;
#234 = AXIS2_PLACEMENT_3D ( 'NONE', #99, #232, #221 ) ;
#235 = EDGE_CURVE ( 'NONE', #128, #13, #227, .T. ) ;
#236 =( NAMED_UNIT ( * ) PLANE_ANGLE_UNIT ( ) SI_UNIT ( $, .RADIAN. ) );
#237 = MANIFOLD_SOLID_BREP ( 'Pøidat vysunutím3', #1 ) ;
#238 = CARTESIAN_POINT ( 'NONE',  ( -3.250000000000000444, 0.000000000000000000, 5.000000000000000000 ) ) ;
#239 = DIRECTION ( 'NONE',  ( 1.000000000000000000, 0.000000000000000000, 0.000000000000000000 ) ) ;
#240 =( NAMED_UNIT ( * ) SI_UNIT ( $, .STERADIAN. ) SOLID_ANGLE_UNIT ( ) );
#241 = CC_DESIGN_APPROVAL ( #53, ( #104 ) ) ;
#242 = APPROVAL_DATE_TIME ( #5, #147 ) ;
#243 = ADVANCED_FACE ( 'NONE', ( #54, #135 ), #17, .T. ) ;
#244 = CIRCLE ( 'NONE', #67, 6.000000000000000888 ) ;
#245 = SHAPE_DEFINITION_REPRESENTATION ( #208, #51 ) ;
#246 = DATE_AND_TIME ( #158, #197 ) ;
#247 = AXIS2_PLACEMENT_3D ( 'NONE', #213, #250, #216 ) ;
#248 = ORIENTED_EDGE ( 'NONE', *, *, #61, .F. ) ;
#249 = DIRECTION ( 'NONE',  ( -0.000000000000000000, -0.000000000000000000, -1.000000000000000000 ) ) ;
#250 = DIRECTION ( 'NONE',  ( 0.000000000000000000, 0.000000000000000000, 1.000000000000000000 ) ) ;
#251 = ORIENTED_EDGE ( 'NONE', *, *, #225, .F. ) ;
#252 = DIRECTION ( 'NONE',  ( 0.000000000000000000, 0.000000000000000000, 1.000000000000000000 ) ) ;
#253 = CARTESIAN_POINT ( 'NONE',  ( -3.250000000000000444, 0.000000000000000000, 125.0000000000000000 ) ) ;
#254 = CC_DESIGN_PERSON_AND_ORGANIZATION_ASSIGNMENT ( #62, #41, ( #74 ) ) ;
#255 = CARTESIAN_POINT ( 'NONE',  ( 0.000000000000000000, 0.000000000000000000, 5.000000000000000000 ) ) ;
ENDSEC;
END-ISO-10303-21;
