ISO-10303-21;
HEADER;
FILE_DESCRIPTION (( 'STEP AP203' ),
    '1' );
FILE_NAME ('e3da.STEP',
    '2023-02-13T13:12:49',
    ( '' ),
    ( '' ),
    'SwSTEP 2.0',
    'SolidWorks 2019',
    '' );
FILE_SCHEMA (( 'CONFIG_CONTROL_DESIGN' ));
ENDSEC;

DATA;
#1 =( LENGTH_UNIT ( ) NAMED_UNIT ( * ) SI_UNIT ( .MILLI., .METRE. ) );
#2 = DIRECTION ( 'NONE',  ( -1.000000000000000000, 0.000000000000000000, 0.000000000000000000 ) ) ;
#3 = DIRECTION ( 'NONE',  ( -0.000000000000000000, -0.000000000000000000, -1.000000000000000000 ) ) ;
#4 = EDGE_CURVE ( 'NONE', #60, #112, #160, .T. ) ;
#5 = CARTESIAN_POINT ( 'NONE',  ( -8.000000000000000000, 0.000000000000000000, 5.000000000000000000 ) ) ;
#6 = CC_DESIGN_SECURITY_CLASSIFICATION ( #221, ( #77 ) ) ;
#7 = CARTESIAN_POINT ( 'NONE',  ( 0.000000000000000000, 0.000000000000000000, 0.000000000000000000 ) ) ;
#8 = ADVANCED_BREP_SHAPE_REPRESENTATION ( 'e3da', ( #130, #172 ), #195 ) ;
#9 = ORIENTED_EDGE ( 'NONE', *, *, #4, .T. ) ;
#10 = LINE ( 'NONE', #36, #43 ) ;
#11 = DIRECTION ( 'NONE',  ( 1.000000000000000000, 0.000000000000000000, 0.000000000000000000 ) ) ;
#12 = CC_DESIGN_PERSON_AND_ORGANIZATION_ASSIGNMENT ( #41, #117, ( #226 ) ) ;
#13 = VECTOR ( 'NONE', #3, 1000.000000000000000 ) ;
#14 = CALENDAR_DATE ( 2023, 13, 2 ) ;
#15 = AXIS2_PLACEMENT_3D ( 'NONE', #203, #44, #214 ) ;
#16 = COORDINATED_UNIVERSAL_TIME_OFFSET ( 1, 0, .AHEAD. ) ;
#17 = ORIENTED_EDGE ( 'NONE', *, *, #64, .F. ) ;
#18 = AXIS2_PLACEMENT_3D ( 'NONE', #220, #55, #11 ) ;
#19 = ORIENTED_EDGE ( 'NONE', *, *, #186, .F. ) ;
#20 = CIRCLE ( 'NONE', #15, 8.000000000000000000 ) ;
#21 = PRODUCT_DEFINITION_SHAPE ( 'NONE', 'NONE',  #226 ) ;
#22 = ORIENTED_EDGE ( 'NONE', *, *, #91, .T. ) ;
#23 = COORDINATED_UNIVERSAL_TIME_OFFSET ( 1, 0, .AHEAD. ) ;
#24 = CC_DESIGN_PERSON_AND_ORGANIZATION_ASSIGNMENT ( #95, #223, ( #77 ) ) ;
#25 = CARTESIAN_POINT ( 'NONE',  ( -5.250000000000000000, 0.000000000000000000, 400.0000000000000000 ) ) ;
#26 = ORIENTED_EDGE ( 'NONE', *, *, #4, .F. ) ;
#27 = FACE_OUTER_BOUND ( 'NONE', #218, .T. ) ;
#28 = AXIS2_PLACEMENT_3D ( 'NONE', #119, #65, #47 ) ;
#29 = CARTESIAN_POINT ( 'NONE',  ( -5.250000000000000000, 0.000000000000000000, 400.0000000000000000 ) ) ;
#30 = APPLICATION_CONTEXT ( 'configuration controlled 3d designs of mechanical parts and assemblies' ) ;
#31 = CYLINDRICAL_SURFACE ( 'NONE', #245, 8.000000000000000000 ) ;
#32 = ORIENTED_EDGE ( 'NONE', *, *, #201, .F. ) ;
#33 = ORIENTED_EDGE ( 'NONE', *, *, #105, .T. ) ;
#34 = CIRCLE ( 'NONE', #165, 5.250000000000000000 ) ;
#35 = DIRECTION ( 'NONE',  ( -0.000000000000000000, -0.000000000000000000, -1.000000000000000000 ) ) ;
#36 = CARTESIAN_POINT ( 'NONE',  ( -8.000000000000000000, 0.000000000000000000, 5.000000000000000000 ) ) ;
#37 = CALENDAR_DATE ( 2023, 13, 2 ) ;
#38 = DIRECTION ( 'NONE',  ( 0.000000000000000000, 0.000000000000000000, 1.000000000000000000 ) ) ;
#39 = APPROVAL_ROLE ( '' ) ;
#40 = ORIENTED_EDGE ( 'NONE', *, *, #240, .T. ) ;
#41 = PERSON_AND_ORGANIZATION ( #217, #94 ) ;
#42 = APPLICATION_CONTEXT ( 'configuration controlled 3d designs of mechanical parts and assemblies' ) ;
#43 = VECTOR ( 'NONE', #131, 1000.000000000000000 ) ;
#44 = DIRECTION ( 'NONE',  ( 0.000000000000000000, 0.000000000000000000, 1.000000000000000000 ) ) ;
#45 = DIRECTION ( 'NONE',  ( -0.000000000000000000, -0.000000000000000000, -1.000000000000000000 ) ) ;
#46 = DIRECTION ( 'NONE',  ( 0.000000000000000000, 0.000000000000000000, 1.000000000000000000 ) ) ;
#47 = DIRECTION ( 'NONE',  ( 1.000000000000000000, 0.000000000000000000, 0.000000000000000000 ) ) ;
#48 = DIRECTION ( 'NONE',  ( -1.000000000000000000, 0.000000000000000000, 0.000000000000000000 ) ) ;
#49 = PERSON_AND_ORGANIZATION_ROLE ( 'classification_officer' ) ;
#50 = CIRCLE ( 'NONE', #18, 5.250000000000000000 ) ;
#51 = CARTESIAN_POINT ( 'NONE',  ( 5.250000000000000000, 6.429395695523603167E-16, 400.0000000000000000 ) ) ;
#52 = EDGE_LOOP ( 'NONE', ( #210, #32, #209, #141 ) ) ;
#53 = ADVANCED_FACE ( 'NONE', ( #27 ), #103, .T. ) ;
#54 = FACE_OUTER_BOUND ( 'NONE', #252, .T. ) ;
#55 = DIRECTION ( 'NONE',  ( 0.000000000000000000, 0.000000000000000000, 1.000000000000000000 ) ) ;
#56 = EDGE_LOOP ( 'NONE', ( #19, #183 ) ) ;
#57 = DIRECTION ( 'NONE',  ( 1.000000000000000000, 0.000000000000000000, 0.000000000000000000 ) ) ;
#58 = COORDINATED_UNIVERSAL_TIME_OFFSET ( 1, 0, .AHEAD. ) ;
#59 = DIRECTION ( 'NONE',  ( 0.000000000000000000, 0.000000000000000000, 1.000000000000000000 ) ) ;
#60 = VERTEX_POINT ( 'NONE', #51 ) ;
#61 = PERSON_AND_ORGANIZATION_ROLE ( 'design_supplier' ) ;
#62 = APPLICATION_PROTOCOL_DEFINITION ( 'international standard', 'config_control_design', 1994, #42 ) ;
#63 = LOCAL_TIME ( 14, 12, 49.00000000000000000, #192 ) ;
#64 = EDGE_CURVE ( 'NONE', #229, #100, #10, .T. ) ;
#65 = DIRECTION ( 'NONE',  ( 0.000000000000000000, 0.000000000000000000, 1.000000000000000000 ) ) ;
#66 = AXIS2_PLACEMENT_3D ( 'NONE', #67, #46, #198 ) ;
#67 = CARTESIAN_POINT ( 'NONE',  ( 0.000000000000000000, 0.000000000000000000, 0.000000000000000000 ) ) ;
#68 =( NAMED_UNIT ( * ) SI_UNIT ( $, .STERADIAN. ) SOLID_ANGLE_UNIT ( ) );
#69 = DIRECTION ( 'NONE',  ( 0.000000000000000000, 0.000000000000000000, 1.000000000000000000 ) ) ;
#70 = APPROVAL_DATE_TIME ( #225, #168 ) ;
#71 = APPROVAL ( #193, 'NEURÈENÝ' ) ;
#72 = CIRCLE ( 'NONE', #143, 8.000000000000000000 ) ;
#73 = EDGE_CURVE ( 'NONE', #133, #60, #161, .T. ) ;
#74 = DIRECTION ( 'NONE',  ( 0.000000000000000000, 0.000000000000000000, 1.000000000000000000 ) ) ;
#75 = DIRECTION ( 'NONE',  ( 1.000000000000000000, 0.000000000000000000, 0.000000000000000000 ) ) ;
#76 = APPROVAL_STATUS ( 'not_yet_approved' ) ;
#77 = PRODUCT_DEFINITION_FORMATION_WITH_SPECIFIED_SOURCE ( 'LIBOVOLNÝ', '', #204, .NOT_KNOWN. ) ;
#78 = PERSON_AND_ORGANIZATION ( #217, #94 ) ;
#79 = ORIENTED_EDGE ( 'NONE', *, *, #255, .T. ) ;
#80 = DATE_AND_TIME ( #137, #116 ) ;
#81 = ADVANCED_FACE ( 'NONE', ( #243 ), #31, .T. ) ;
#82 = ORIENTED_EDGE ( 'NONE', *, *, #228, .T. ) ;
#83 = ORIENTED_EDGE ( 'NONE', *, *, #73, .T. ) ;
#84 = CC_DESIGN_DATE_AND_TIME_ASSIGNMENT ( #80, #171, ( #226 ) ) ;
#85 = CARTESIAN_POINT ( 'NONE',  ( 0.000000000000000000, 0.000000000000000000, 400.0000000000000000 ) ) ;
#86 = AXIS2_PLACEMENT_3D ( 'NONE', #235, #69, #144 ) ;
#87 = APPROVAL_PERSON_ORGANIZATION ( #115, #71, #169 ) ;
#88 = CARTESIAN_POINT ( 'NONE',  ( -8.000000000000000000, 0.000000000000000000, 0.000000000000000000 ) ) ;
#89 = PERSON_AND_ORGANIZATION ( #217, #94 ) ;
#90 = DIRECTION ( 'NONE',  ( -1.000000000000000000, 0.000000000000000000, 0.000000000000000000 ) ) ;
#91 = EDGE_CURVE ( 'NONE', #60, #133, #50, .T. ) ;
#92 = EDGE_CURVE ( 'NONE', #96, #229, #140, .T. ) ;
#93 = CARTESIAN_POINT ( 'NONE',  ( -5.250000000000000000, 0.000000000000000000, 5.000000000000000000 ) ) ;
#94 = ORGANIZATION ( 'NEURÈENÝ', 'NEURÈENÝ', '' ) ;
#95 = PERSON_AND_ORGANIZATION ( #217, #94 ) ;
#96 = VERTEX_POINT ( 'NONE', #113 ) ;
#97 = LINE ( 'NONE', #25, #213 ) ;
#98 = DIRECTION ( 'NONE',  ( -0.000000000000000000, -0.000000000000000000, -1.000000000000000000 ) ) ;
#99 = CARTESIAN_POINT ( 'NONE',  ( 0.000000000000000000, 0.000000000000000000, 5.000000000000000000 ) ) ;
#100 = VERTEX_POINT ( 'NONE', #88 ) ;
#101 = DIRECTION ( 'NONE',  ( -0.000000000000000000, -0.000000000000000000, -1.000000000000000000 ) ) ;
#102 = CARTESIAN_POINT ( 'NONE',  ( 0.000000000000000000, 0.000000000000000000, 400.0000000000000000 ) ) ;
#103 = PLANE ( 'NONE',  #86 ) ;
#104 = CARTESIAN_POINT ( 'NONE',  ( 8.000000000000000000, 9.797174393178825657E-16, 0.000000000000000000 ) ) ;
#105 = EDGE_CURVE ( 'NONE', #112, #194, #110, .T. ) ;
#106 = EDGE_LOOP ( 'NONE', ( #26, #124, #40, #79 ) ) ;
#107 = DIRECTION ( 'NONE',  ( 0.000000000000000000, 0.000000000000000000, 1.000000000000000000 ) ) ;
#108 = DIRECTION ( 'NONE',  ( -1.000000000000000000, 0.000000000000000000, 0.000000000000000000 ) ) ;
#109 = DIRECTION ( 'NONE',  ( -0.000000000000000000, -0.000000000000000000, -1.000000000000000000 ) ) ;
#110 = CIRCLE ( 'NONE', #28, 5.250000000000000000 ) ;
#111 = AXIS2_PLACEMENT_3D ( 'NONE', #153, #59, #189 ) ;
#112 = VERTEX_POINT ( 'NONE', #123 ) ;
#113 = CARTESIAN_POINT ( 'NONE',  ( 8.000000000000000000, 9.797174393178825657E-16, 5.000000000000000000 ) ) ;
#114 = ORIENTED_EDGE ( 'NONE', *, *, #201, .T. ) ;
#115 = PERSON_AND_ORGANIZATION ( #217, #94 ) ;
#116 = LOCAL_TIME ( 14, 12, 49.00000000000000000, #16 ) ;
#117 = PERSON_AND_ORGANIZATION_ROLE ( 'creator' ) ;
#118 = ADVANCED_FACE ( 'NONE', ( #157 ), #238, .T. ) ;
#119 = CARTESIAN_POINT ( 'NONE',  ( 0.000000000000000000, 0.000000000000000000, 5.000000000000000000 ) ) ;
#120 = APPROVAL_PERSON_ORGANIZATION ( #188, #168, #39 ) ;
#121 = CARTESIAN_POINT ( 'NONE',  ( 8.000000000000000000, 9.797174393178825657E-16, 5.000000000000000000 ) ) ;
#122 = LINE ( 'NONE', #121, #152 ) ;
#123 = CARTESIAN_POINT ( 'NONE',  ( 5.250000000000000000, 6.429395695523603167E-16, 5.000000000000000000 ) ) ;
#124 = ORIENTED_EDGE ( 'NONE', *, *, #73, .F. ) ;
#125 = ADVANCED_FACE ( 'NONE', ( #232 ), #179, .T. ) ;
#126 = CYLINDRICAL_SURFACE ( 'NONE', #185, 8.000000000000000000 ) ;
#127 = DESIGN_CONTEXT ( 'detailed design', #42, 'design' ) ;
#128 = CARTESIAN_POINT ( 'NONE',  ( 0.000000000000000000, 0.000000000000000000, 5.000000000000000000 ) ) ;
#129 = LOCAL_TIME ( 14, 12, 49.00000000000000000, #23 ) ;
#130 = MANIFOLD_SOLID_BREP ( 'Pøidat vysunutím3', #215 ) ;
#131 = DIRECTION ( 'NONE',  ( -0.000000000000000000, -0.000000000000000000, -1.000000000000000000 ) ) ;
#132 = EDGE_CURVE ( 'NONE', #206, #100, #72, .T. ) ;
#133 = VERTEX_POINT ( 'NONE', #29 ) ;
#134 = DATE_AND_TIME ( #224, #146 ) ;
#135 = EDGE_LOOP ( 'NONE', ( #114, #170 ) ) ;
#136 = CIRCLE ( 'NONE', #111, 8.000000000000000000 ) ;
#137 = CALENDAR_DATE ( 2023, 13, 2 ) ;
#138 = CC_DESIGN_DATE_AND_TIME_ASSIGNMENT ( #167, #244, ( #221 ) ) ;
#139 = EDGE_LOOP ( 'NONE', ( #231, #9, #33, #196 ) ) ;
#140 = CIRCLE ( 'NONE', #190, 8.000000000000000000 ) ;
#141 = ORIENTED_EDGE ( 'NONE', *, *, #186, .T. ) ;
#142 = CARTESIAN_POINT ( 'NONE',  ( 5.250000000000000000, 6.429395695523603167E-16, 400.0000000000000000 ) ) ;
#143 = AXIS2_PLACEMENT_3D ( 'NONE', #7, #205, #75 ) ;
#144 = DIRECTION ( 'NONE',  ( 1.000000000000000000, 0.000000000000000000, -0.000000000000000000 ) ) ;
#145 = SHAPE_DEFINITION_REPRESENTATION ( #21, #8 ) ;
#146 = LOCAL_TIME ( 14, 12, 49.00000000000000000, #58 ) ;
#147 = ADVANCED_FACE ( 'NONE', ( #149, #164 ), #222, .T. ) ;
#148 = DIRECTION ( 'NONE',  ( 1.000000000000000000, 0.000000000000000000, 0.000000000000000000 ) ) ;
#149 = FACE_BOUND ( 'NONE', #173, .T. ) ;
#150 = ADVANCED_FACE ( 'NONE', ( #54 ), #126, .T. ) ;
#151 = PERSON_AND_ORGANIZATION_ROLE ( 'design_owner' ) ;
#152 = VECTOR ( 'NONE', #159, 1000.000000000000000 ) ;
#153 = CARTESIAN_POINT ( 'NONE',  ( 0.000000000000000000, 0.000000000000000000, 0.000000000000000000 ) ) ;
#154 = APPROVAL_STATUS ( 'not_yet_approved' ) ;
#155 = ORIENTED_EDGE ( 'NONE', *, *, #92, .F. ) ;
#156 = LOCAL_TIME ( 14, 12, 49.00000000000000000, #248 ) ;
#157 = FACE_OUTER_BOUND ( 'NONE', #106, .T. ) ;
#158 =( NAMED_UNIT ( * ) PLANE_ANGLE_UNIT ( ) SI_UNIT ( $, .RADIAN. ) );
#159 = DIRECTION ( 'NONE',  ( -0.000000000000000000, -0.000000000000000000, -1.000000000000000000 ) ) ;
#160 = LINE ( 'NONE', #142, #13 ) ;
#161 = CIRCLE ( 'NONE', #200, 5.250000000000000000 ) ;
#162 = ORIENTED_EDGE ( 'NONE', *, *, #132, .T. ) ;
#163 = APPROVAL_PERSON_ORGANIZATION ( #250, #219, #227 ) ;
#164 = FACE_OUTER_BOUND ( 'NONE', #135, .T. ) ;
#165 = AXIS2_PLACEMENT_3D ( 'NONE', #99, #178, #175 ) ;
#166 = APPLICATION_PROTOCOL_DEFINITION ( 'international standard', 'config_control_design', 1994, #30 ) ;
#167 = DATE_AND_TIME ( #37, #156 ) ;
#168 = APPROVAL ( #76, 'NEURÈENÝ' ) ;
#169 = APPROVAL_ROLE ( '' ) ;
#170 = ORIENTED_EDGE ( 'NONE', *, *, #92, .T. ) ;
#171 = DATE_TIME_ROLE ( 'creation_date' ) ;
#172 = AXIS2_PLACEMENT_3D ( 'NONE', #242, #74, #207 ) ;
#173 = EDGE_LOOP ( 'NONE', ( #212, #233 ) ) ;
#174 = DATE_AND_TIME ( #216, #129 ) ;
#175 = DIRECTION ( 'NONE',  ( 1.000000000000000000, 0.000000000000000000, 0.000000000000000000 ) ) ;
#176 = AXIS2_PLACEMENT_3D ( 'NONE', #102, #45, #2 ) ;
#177 = CC_DESIGN_PERSON_AND_ORGANIZATION_ASSIGNMENT ( #211, #151, ( #204 ) ) ;
#178 = DIRECTION ( 'NONE',  ( 0.000000000000000000, 0.000000000000000000, 1.000000000000000000 ) ) ;
#179 = CYLINDRICAL_SURFACE ( 'NONE', #251, 5.250000000000000000 ) ;
#180 = AXIS2_PLACEMENT_3D ( 'NONE', #128, #107, #239 ) ;
#181 = SECURITY_CLASSIFICATION_LEVEL ( 'unclassified' ) ;
#182 = CC_DESIGN_PERSON_AND_ORGANIZATION_ASSIGNMENT ( #89, #49, ( #221 ) ) ;
#183 = ORIENTED_EDGE ( 'NONE', *, *, #132, .F. ) ;
#184 = CARTESIAN_POINT ( 'NONE',  ( 0.000000000000000000, 0.000000000000000000, 5.000000000000000000 ) ) ;
#185 = AXIS2_PLACEMENT_3D ( 'NONE', #184, #109, #90 ) ;
#186 = EDGE_CURVE ( 'NONE', #100, #206, #136, .T. ) ;
#187 = DIRECTION ( 'NONE',  ( 0.000000000000000000, 0.000000000000000000, 1.000000000000000000 ) ) ;
#188 = PERSON_AND_ORGANIZATION ( #217, #94 ) ;
#189 = DIRECTION ( 'NONE',  ( 1.000000000000000000, 0.000000000000000000, 0.000000000000000000 ) ) ;
#190 = AXIS2_PLACEMENT_3D ( 'NONE', #246, #38, #57 ) ;
#191 = CARTESIAN_POINT ( 'NONE',  ( 0.000000000000000000, 0.000000000000000000, 5.000000000000000000 ) ) ;
#192 = COORDINATED_UNIVERSAL_TIME_OFFSET ( 1, 0, .AHEAD. ) ;
#193 = APPROVAL_STATUS ( 'not_yet_approved' ) ;
#194 = VERTEX_POINT ( 'NONE', #93 ) ;
#195 =( GEOMETRIC_REPRESENTATION_CONTEXT ( 3 ) GLOBAL_UNCERTAINTY_ASSIGNED_CONTEXT ( ( #208 ) ) GLOBAL_UNIT_ASSIGNED_CONTEXT ( ( #1, #158, #68 ) ) REPRESENTATION_CONTEXT ( 'NONE', 'WORKASPACE' ) );
#196 = ORIENTED_EDGE ( 'NONE', *, *, #240, .F. ) ;
#197 = ADVANCED_FACE ( 'NONE', ( #230 ), #199, .F. ) ;
#198 = DIRECTION ( 'NONE',  ( 1.000000000000000000, 0.000000000000000000, -0.000000000000000000 ) ) ;
#199 = PLANE ( 'NONE',  #66 ) ;
#200 = AXIS2_PLACEMENT_3D ( 'NONE', #241, #187, #148 ) ;
#201 = EDGE_CURVE ( 'NONE', #229, #96, #20, .T. ) ;
#202 = CC_DESIGN_APPROVAL ( #219, ( #77 ) ) ;
#203 = CARTESIAN_POINT ( 'NONE',  ( 0.000000000000000000, 0.000000000000000000, 5.000000000000000000 ) ) ;
#204 = PRODUCT ( 'e3da', 'e3da', '', ( #236 ) ) ;
#205 = DIRECTION ( 'NONE',  ( 0.000000000000000000, 0.000000000000000000, 1.000000000000000000 ) ) ;
#206 = VERTEX_POINT ( 'NONE', #104 ) ;
#207 = DIRECTION ( 'NONE',  ( 1.000000000000000000, 0.000000000000000000, 0.000000000000000000 ) ) ;
#208 = UNCERTAINTY_MEASURE_WITH_UNIT (LENGTH_MEASURE( 1.000000000000000082E-05 ), #1, 'distance_accuracy_value', 'NONE');
#209 = ORIENTED_EDGE ( 'NONE', *, *, #64, .T. ) ;
#210 = ORIENTED_EDGE ( 'NONE', *, *, #228, .F. ) ;
#211 = PERSON_AND_ORGANIZATION ( #217, #94 ) ;
#212 = ORIENTED_EDGE ( 'NONE', *, *, #255, .F. ) ;
#213 = VECTOR ( 'NONE', #101, 1000.000000000000000 ) ;
#214 = DIRECTION ( 'NONE',  ( 1.000000000000000000, 0.000000000000000000, 0.000000000000000000 ) ) ;
#215 = CLOSED_SHELL ( 'NONE', ( #125, #150, #81, #147, #197, #118, #53 ) ) ;
#216 = CALENDAR_DATE ( 2023, 13, 2 ) ;
#217 = PERSON ( 'NEURÈENÝ', 'NEURÈENÝ', 'NEURÈENÝ', ('NEURÈENÝ'), ('NEURÈENÝ'), ('NEURÈENÝ') ) ;
#218 = EDGE_LOOP ( 'NONE', ( #83, #22 ) ) ;
#219 = APPROVAL ( #154, 'NEURÈENÝ' ) ;
#220 = CARTESIAN_POINT ( 'NONE',  ( 0.000000000000000000, 0.000000000000000000, 400.0000000000000000 ) ) ;
#221 = SECURITY_CLASSIFICATION ( '', '', #181 ) ;
#222 = PLANE ( 'NONE',  #180 ) ;
#223 = PERSON_AND_ORGANIZATION_ROLE ( 'creator' ) ;
#224 = CALENDAR_DATE ( 2023, 13, 2 ) ;
#225 = DATE_AND_TIME ( #14, #63 ) ;
#226 = PRODUCT_DEFINITION ( 'NEZNÁMÝ', '', #77, #127 ) ;
#227 = APPROVAL_ROLE ( '' ) ;
#228 = EDGE_CURVE ( 'NONE', #96, #206, #122, .T. ) ;
#229 = VERTEX_POINT ( 'NONE', #5 ) ;
#230 = FACE_OUTER_BOUND ( 'NONE', #56, .T. ) ;
#231 = ORIENTED_EDGE ( 'NONE', *, *, #91, .F. ) ;
#232 = FACE_OUTER_BOUND ( 'NONE', #139, .T. ) ;
#233 = ORIENTED_EDGE ( 'NONE', *, *, #105, .F. ) ;
#234 = CC_DESIGN_APPROVAL ( #71, ( #226 ) ) ;
#235 = CARTESIAN_POINT ( 'NONE',  ( 0.000000000000000000, 0.000000000000000000, 400.0000000000000000 ) ) ;
#236 = MECHANICAL_CONTEXT ( 'NONE', #30, 'mechanical' ) ;
#237 = CC_DESIGN_PERSON_AND_ORGANIZATION_ASSIGNMENT ( #78, #61, ( #77 ) ) ;
#238 = CYLINDRICAL_SURFACE ( 'NONE', #176, 5.250000000000000000 ) ;
#239 = DIRECTION ( 'NONE',  ( 1.000000000000000000, 0.000000000000000000, -0.000000000000000000 ) ) ;
#240 = EDGE_CURVE ( 'NONE', #133, #194, #97, .T. ) ;
#241 = CARTESIAN_POINT ( 'NONE',  ( 0.000000000000000000, 0.000000000000000000, 400.0000000000000000 ) ) ;
#242 = CARTESIAN_POINT ( 'NONE',  ( 0.000000000000000000, 0.000000000000000000, 0.000000000000000000 ) ) ;
#243 = FACE_OUTER_BOUND ( 'NONE', #52, .T. ) ;
#244 = DATE_TIME_ROLE ( 'classification_date' ) ;
#245 = AXIS2_PLACEMENT_3D ( 'NONE', #191, #35, #108 ) ;
#246 = CARTESIAN_POINT ( 'NONE',  ( 0.000000000000000000, 0.000000000000000000, 5.000000000000000000 ) ) ;
#247 = PRODUCT_RELATED_PRODUCT_CATEGORY ( 'detail', '', ( #204 ) ) ;
#248 = COORDINATED_UNIVERSAL_TIME_OFFSET ( 1, 0, .AHEAD. ) ;
#249 = APPROVAL_DATE_TIME ( #134, #71 ) ;
#250 = PERSON_AND_ORGANIZATION ( #217, #94 ) ;
#251 = AXIS2_PLACEMENT_3D ( 'NONE', #85, #98, #48 ) ;
#252 = EDGE_LOOP ( 'NONE', ( #155, #82, #162, #17 ) ) ;
#253 = APPROVAL_DATE_TIME ( #174, #219 ) ;
#254 = CC_DESIGN_APPROVAL ( #168, ( #221 ) ) ;
#255 = EDGE_CURVE ( 'NONE', #194, #112, #34, .T. ) ;
ENDSEC;
END-ISO-10303-21;
