ISO-10303-21;
HEADER;
FILE_DESCRIPTION (( 'STEP AP203' ),
    '1' );
FILE_NAME ('1272.STEP',
    '2022-07-07T17:08:50',
    ( '' ),
    ( '' ),
    'SwSTEP 2.0',
    'SolidWorks 2019',
    '' );
FILE_SCHEMA (( 'CONFIG_CONTROL_DESIGN' ));
ENDSEC;

DATA;
#1 = CARTESIAN_POINT ( 'NONE',  ( 0.000000000000000000, 0.000000000000000000, 322.0000000000000000 ) ) ;
#2 = AXIS2_PLACEMENT_3D ( 'NONE', #254, #154, #232 ) ;
#3 = APPROVAL ( #45, 'NEURÈENÝ' ) ;
#4 = PRODUCT_DEFINITION_SHAPE ( 'NONE', 'NONE',  #44 ) ;
#5 = DIRECTION ( 'NONE',  ( 0.000000000000000000, 0.000000000000000000, 1.000000000000000000 ) ) ;
#6 = APPROVAL_ROLE ( '' ) ;
#7 = VECTOR ( 'NONE', #133, 1000.000000000000000 ) ;
#8 = DIRECTION ( 'NONE',  ( 0.000000000000000000, 0.000000000000000000, 1.000000000000000000 ) ) ;
#9 = APPROVAL_STATUS ( 'not_yet_approved' ) ;
#10 = CIRCLE ( 'NONE', #214, 11.00000000000000000 ) ;
#11 = PERSON_AND_ORGANIZATION ( #69, #107 ) ;
#12 = ORIENTED_EDGE ( 'NONE', *, *, #226, .F. ) ;
#13 = ORIENTED_EDGE ( 'NONE', *, *, #165, .F. ) ;
#14 = LOCAL_TIME ( 19, 8, 50.00000000000000000, #42 ) ;
#15 = VERTEX_POINT ( 'NONE', #248 ) ;
#16 = DIRECTION ( 'NONE',  ( -0.000000000000000000, -0.000000000000000000, -1.000000000000000000 ) ) ;
#17 = APPROVAL ( #245, 'NEURÈENÝ' ) ;
#18 = EDGE_LOOP ( 'NONE', ( #225, #91, #68, #206 ) ) ;
#19 = LINE ( 'NONE', #210, #135 ) ;
#20 = LINE ( 'NONE', #92, #250 ) ;
#21 = DIRECTION ( 'NONE',  ( -0.000000000000000000, -0.000000000000000000, -1.000000000000000000 ) ) ;
#22 = SECURITY_CLASSIFICATION ( '', '', #178 ) ;
#23 = EDGE_CURVE ( 'NONE', #243, #15, #19, .T. ) ;
#24 = CARTESIAN_POINT ( 'NONE',  ( -7.750000000000000000, 0.000000000000000000, 322.0000000000000000 ) ) ;
#25 = COORDINATED_UNIVERSAL_TIME_OFFSET ( 1, 0, .AHEAD. ) ;
#26 = CARTESIAN_POINT ( 'NONE',  ( 0.000000000000000000, 0.000000000000000000, 7.000000000000000000 ) ) ;
#27 = PERSON_AND_ORGANIZATION ( #69, #107 ) ;
#28 = ADVANCED_FACE ( 'NONE', ( #205, #207 ), #190, .T. ) ;
#29 = MANIFOLD_SOLID_BREP ( 'Pøidat vysunutím3', #157 ) ;
#30 =( NAMED_UNIT ( * ) SI_UNIT ( $, .STERADIAN. ) SOLID_ANGLE_UNIT ( ) );
#31 = PERSON_AND_ORGANIZATION ( #69, #107 ) ;
#32 = LOCAL_TIME ( 19, 8, 50.00000000000000000, #25 ) ;
#33 = CARTESIAN_POINT ( 'NONE',  ( 11.00000000000000000, 1.347111479062088405E-15, 0.000000000000000000 ) ) ;
#34 = EDGE_LOOP ( 'NONE', ( #170, #247, #74, #228 ) ) ;
#35 = CARTESIAN_POINT ( 'NONE',  ( 0.000000000000000000, 0.000000000000000000, 322.0000000000000000 ) ) ;
#36 = FACE_OUTER_BOUND ( 'NONE', #129, .T. ) ;
#37 = DIRECTION ( 'NONE',  ( 1.000000000000000000, 0.000000000000000000, -0.000000000000000000 ) ) ;
#38 = FACE_OUTER_BOUND ( 'NONE', #132, .T. ) ;
#39 = CC_DESIGN_DATE_AND_TIME_ASSIGNMENT ( #146, #212, ( #44 ) ) ;
#40 = EDGE_CURVE ( 'NONE', #156, #108, #20, .T. ) ;
#41 = PRODUCT ( '1272', '1272', '', ( #123 ) ) ;
#42 = COORDINATED_UNIVERSAL_TIME_OFFSET ( 1, 0, .AHEAD. ) ;
#43 = AXIS2_PLACEMENT_3D ( 'NONE', #70, #8, #197 ) ;
#44 = PRODUCT_DEFINITION ( 'NEZNÁMÝ', '', #193, #122 ) ;
#45 = APPROVAL_STATUS ( 'not_yet_approved' ) ;
#46 = PERSON_AND_ORGANIZATION_ROLE ( 'creator' ) ;
#47 = COORDINATED_UNIVERSAL_TIME_OFFSET ( 1, 0, .AHEAD. ) ;
#48 = PERSON_AND_ORGANIZATION ( #69, #107 ) ;
#49 = EDGE_CURVE ( 'NONE', #156, #88, #188, .T. ) ;
#50 = APPLICATION_PROTOCOL_DEFINITION ( 'international standard', 'config_control_design', 1994, #219 ) ;
#51 = DATE_AND_TIME ( #119, #55 ) ;
#52 = EDGE_LOOP ( 'NONE', ( #224, #13 ) ) ;
#53 = CYLINDRICAL_SURFACE ( 'NONE', #143, 7.750000000000000000 ) ;
#54 = ORIENTED_EDGE ( 'NONE', *, *, #131, .T. ) ;
#55 = LOCAL_TIME ( 19, 8, 50.00000000000000000, #71 ) ;
#56 = DIRECTION ( 'NONE',  ( -0.000000000000000000, -0.000000000000000000, -1.000000000000000000 ) ) ;
#57 = APPROVAL_PERSON_ORGANIZATION ( #11, #200, #137 ) ;
#58 = CARTESIAN_POINT ( 'NONE',  ( 11.00000000000000000, 1.347111479062088405E-15, 7.000000000000000000 ) ) ;
#59 = AXIS2_PLACEMENT_3D ( 'NONE', #172, #234, #37 ) ;
#60 = CARTESIAN_POINT ( 'NONE',  ( 7.750000000000000000, 9.491012693391987787E-16, 322.0000000000000000 ) ) ;
#61 = ADVANCED_FACE ( 'NONE', ( #36 ), #97, .F. ) ;
#62 = PERSON_AND_ORGANIZATION ( #69, #107 ) ;
#63 = AXIS2_PLACEMENT_3D ( 'NONE', #184, #130, #77 ) ;
#64 = CC_DESIGN_PERSON_AND_ORGANIZATION_ASSIGNMENT ( #82, #158, ( #41 ) ) ;
#65 = APPLICATION_PROTOCOL_DEFINITION ( 'international standard', 'config_control_design', 1994, #253 ) ;
#66 = LINE ( 'NONE', #102, #213 ) ;
#67 = APPROVAL_DATE_TIME ( #83, #17 ) ;
#68 = ORIENTED_EDGE ( 'NONE', *, *, #23, .T. ) ;
#69 = PERSON ( 'NEURÈENÝ', 'NEURÈENÝ', 'NEURÈENÝ', ('NEURÈENÝ'), ('NEURÈENÝ'), ('NEURÈENÝ') ) ;
#70 = CARTESIAN_POINT ( 'NONE',  ( 0.000000000000000000, 0.000000000000000000, 7.000000000000000000 ) ) ;
#71 = COORDINATED_UNIVERSAL_TIME_OFFSET ( 1, 0, .AHEAD. ) ;
#72 = EDGE_LOOP ( 'NONE', ( #249, #89 ) ) ;
#73 = PLANE ( 'NONE',  #100 ) ;
#74 = ORIENTED_EDGE ( 'NONE', *, *, #165, .T. ) ;
#75 = EDGE_CURVE ( 'NONE', #106, #167, #155, .T. ) ;
#76 = FACE_OUTER_BOUND ( 'NONE', #203, .T. ) ;
#77 = DIRECTION ( 'NONE',  ( -1.000000000000000000, 0.000000000000000000, 0.000000000000000000 ) ) ;
#78 = CARTESIAN_POINT ( 'NONE',  ( 0.000000000000000000, 0.000000000000000000, 7.000000000000000000 ) ) ;
#79 = DIRECTION ( 'NONE',  ( 0.000000000000000000, 0.000000000000000000, 1.000000000000000000 ) ) ;
#80 = CC_DESIGN_SECURITY_CLASSIFICATION ( #22, ( #193 ) ) ;
#81 = ADVANCED_FACE ( 'NONE', ( #38 ), #73, .T. ) ;
#82 = PERSON_AND_ORGANIZATION ( #69, #107 ) ;
#83 = DATE_AND_TIME ( #241, #86 ) ;
#84 = DIRECTION ( 'NONE',  ( 1.000000000000000000, 0.000000000000000000, 0.000000000000000000 ) ) ;
#85 = PERSON_AND_ORGANIZATION_ROLE ( 'classification_officer' ) ;
#86 = LOCAL_TIME ( 19, 8, 50.00000000000000000, #47 ) ;
#87 = ADVANCED_FACE ( 'NONE', ( #76 ), #173, .T. ) ;
#88 = VERTEX_POINT ( 'NONE', #58 ) ;
#89 = ORIENTED_EDGE ( 'NONE', *, *, #226, .T. ) ;
#90 = ADVANCED_FACE ( 'NONE', ( #229 ), #191, .T. ) ;
#91 = ORIENTED_EDGE ( 'NONE', *, *, #94, .F. ) ;
#92 = CARTESIAN_POINT ( 'NONE',  ( -11.00000000000000000, 0.000000000000000000, 7.000000000000000000 ) ) ;
#93 = CARTESIAN_POINT ( 'NONE',  ( 0.000000000000000000, 0.000000000000000000, 7.000000000000000000 ) ) ;
#94 = EDGE_CURVE ( 'NONE', #243, #106, #237, .T. ) ;
#95 = AXIS2_PLACEMENT_3D ( 'NONE', #26, #142, #194 ) ;
#96 = CARTESIAN_POINT ( 'NONE',  ( 0.000000000000000000, 0.000000000000000000, 7.000000000000000000 ) ) ;
#97 = PLANE ( 'NONE',  #59 ) ;
#98 = APPROVAL_PERSON_ORGANIZATION ( #163, #17, #6 ) ;
#99 = PRODUCT_RELATED_PRODUCT_CATEGORY ( 'detail', '', ( #41 ) ) ;
#100 = AXIS2_PLACEMENT_3D ( 'NONE', #35, #111, #187 ) ;
#101 = DATE_AND_TIME ( #139, #32 ) ;
#102 = CARTESIAN_POINT ( 'NONE',  ( 11.00000000000000000, 1.347111479062088405E-15, 7.000000000000000000 ) ) ;
#103 = PERSON_AND_ORGANIZATION_ROLE ( 'design_supplier' ) ;
#104 = AXIS2_PLACEMENT_3D ( 'NONE', #78, #255, #110 ) ;
#105 = CC_DESIGN_PERSON_AND_ORGANIZATION_ASSIGNMENT ( #31, #85, ( #22 ) ) ;
#106 = VERTEX_POINT ( 'NONE', #149 ) ;
#107 = ORGANIZATION ( 'NEURÈENÝ', 'NEURÈENÝ', '' ) ;
#108 = VERTEX_POINT ( 'NONE', #227 ) ;
#109 = FACE_OUTER_BOUND ( 'NONE', #18, .T. ) ;
#110 = DIRECTION ( 'NONE',  ( 1.000000000000000000, 0.000000000000000000, -0.000000000000000000 ) ) ;
#111 = DIRECTION ( 'NONE',  ( 0.000000000000000000, 0.000000000000000000, 1.000000000000000000 ) ) ;
#112 = CC_DESIGN_PERSON_AND_ORGANIZATION_ASSIGNMENT ( #27, #103, ( #193 ) ) ;
#113 = CC_DESIGN_PERSON_AND_ORGANIZATION_ASSIGNMENT ( #48, #181, ( #193 ) ) ;
#114 = DIRECTION ( 'NONE',  ( -0.000000000000000000, -0.000000000000000000, -1.000000000000000000 ) ) ;
#115 = COORDINATED_UNIVERSAL_TIME_OFFSET ( 1, 0, .AHEAD. ) ;
#116 = LOCAL_TIME ( 19, 8, 50.00000000000000000, #115 ) ;
#117 = CC_DESIGN_APPROVAL ( #17, ( #22 ) ) ;
#118 = DIRECTION ( 'NONE',  ( 0.000000000000000000, 0.000000000000000000, 1.000000000000000000 ) ) ;
#119 = CALENDAR_DATE ( 2022, 7, 7 ) ;
#120 =( NAMED_UNIT ( * ) PLANE_ANGLE_UNIT ( ) SI_UNIT ( $, .RADIAN. ) );
#121 = CYLINDRICAL_SURFACE ( 'NONE', #174, 7.750000000000000000 ) ;
#122 = DESIGN_CONTEXT ( 'detailed design', #253, 'design' ) ;
#123 = MECHANICAL_CONTEXT ( 'NONE', #219, 'mechanical' ) ;
#124 = ORIENTED_EDGE ( 'NONE', *, *, #134, .T. ) ;
#125 = ADVANCED_FACE ( 'NONE', ( #109 ), #53, .T. ) ;
#126 = ORIENTED_EDGE ( 'NONE', *, *, #185, .T. ) ;
#127 = DIRECTION ( 'NONE',  ( 1.000000000000000000, 0.000000000000000000, 0.000000000000000000 ) ) ;
#128 = CIRCLE ( 'NONE', #161, 11.00000000000000000 ) ;
#129 = EDGE_LOOP ( 'NONE', ( #186, #246 ) ) ;
#130 = DIRECTION ( 'NONE',  ( -0.000000000000000000, -0.000000000000000000, -1.000000000000000000 ) ) ;
#131 = EDGE_CURVE ( 'NONE', #106, #243, #211, .T. ) ;
#132 = EDGE_LOOP ( 'NONE', ( #148, #54 ) ) ;
#133 = DIRECTION ( 'NONE',  ( -0.000000000000000000, -0.000000000000000000, -1.000000000000000000 ) ) ;
#134 = EDGE_CURVE ( 'NONE', #88, #144, #66, .T. ) ;
#135 = VECTOR ( 'NONE', #21, 1000.000000000000000 ) ;
#136 = AXIS2_PLACEMENT_3D ( 'NONE', #180, #222, #138 ) ;
#137 = APPROVAL_ROLE ( '' ) ;
#138 = DIRECTION ( 'NONE',  ( 1.000000000000000000, 0.000000000000000000, 0.000000000000000000 ) ) ;
#139 = CALENDAR_DATE ( 2022, 7, 7 ) ;
#140 = CC_DESIGN_APPROVAL ( #200, ( #193 ) ) ;
#141 = EDGE_CURVE ( 'NONE', #144, #108, #10, .T. ) ;
#142 = DIRECTION ( 'NONE',  ( 0.000000000000000000, 0.000000000000000000, 1.000000000000000000 ) ) ;
#143 = AXIS2_PLACEMENT_3D ( 'NONE', #153, #56, #171 ) ;
#144 = VERTEX_POINT ( 'NONE', #33 ) ;
#145 = CARTESIAN_POINT ( 'NONE',  ( 0.000000000000000000, 0.000000000000000000, 322.0000000000000000 ) ) ;
#146 = DATE_AND_TIME ( #216, #116 ) ;
#147 = ADVANCED_BREP_SHAPE_REPRESENTATION ( '1272', ( #29, #136 ), #196 ) ;
#148 = ORIENTED_EDGE ( 'NONE', *, *, #94, .T. ) ;
#149 = CARTESIAN_POINT ( 'NONE',  ( 7.750000000000000000, 9.491012693391987787E-16, 322.0000000000000000 ) ) ;
#150 = ORIENTED_EDGE ( 'NONE', *, *, #134, .F. ) ;
#151 = AXIS2_PLACEMENT_3D ( 'NONE', #1, #79, #127 ) ;
#152 = EDGE_CURVE ( 'NONE', #15, #167, #230, .T. ) ;
#153 = CARTESIAN_POINT ( 'NONE',  ( 0.000000000000000000, 0.000000000000000000, 322.0000000000000000 ) ) ;
#154 = DIRECTION ( 'NONE',  ( 0.000000000000000000, 0.000000000000000000, 1.000000000000000000 ) ) ;
#155 = LINE ( 'NONE', #60, #7 ) ;
#156 = VERTEX_POINT ( 'NONE', #201 ) ;
#157 = CLOSED_SHELL ( 'NONE', ( #252, #90, #87, #28, #61, #125, #81 ) ) ;
#158 = PERSON_AND_ORGANIZATION_ROLE ( 'design_owner' ) ;
#159 = SHAPE_DEFINITION_REPRESENTATION ( #4, #147 ) ;
#160 = DIRECTION ( 'NONE',  ( 1.000000000000000000, 0.000000000000000000, 0.000000000000000000 ) ) ;
#161 = AXIS2_PLACEMENT_3D ( 'NONE', #164, #5, #84 ) ;
#162 = CARTESIAN_POINT ( 'NONE',  ( 7.750000000000000000, 9.491012693391987787E-16, 7.000000000000000000 ) ) ;
#163 = PERSON_AND_ORGANIZATION ( #69, #107 ) ;
#164 = CARTESIAN_POINT ( 'NONE',  ( 0.000000000000000000, 0.000000000000000000, 7.000000000000000000 ) ) ;
#165 = EDGE_CURVE ( 'NONE', #167, #15, #179, .T. ) ;
#166 = ORIENTED_EDGE ( 'NONE', *, *, #40, .T. ) ;
#167 = VERTEX_POINT ( 'NONE', #162 ) ;
#168 = ORIENTED_EDGE ( 'NONE', *, *, #40, .F. ) ;
#169 = DIRECTION ( 'NONE',  ( 1.000000000000000000, 0.000000000000000000, 0.000000000000000000 ) ) ;
#170 = ORIENTED_EDGE ( 'NONE', *, *, #131, .F. ) ;
#171 = DIRECTION ( 'NONE',  ( -1.000000000000000000, 0.000000000000000000, 0.000000000000000000 ) ) ;
#172 = CARTESIAN_POINT ( 'NONE',  ( 0.000000000000000000, 0.000000000000000000, 0.000000000000000000 ) ) ;
#173 = CYLINDRICAL_SURFACE ( 'NONE', #63, 11.00000000000000000 ) ;
#174 = AXIS2_PLACEMENT_3D ( 'NONE', #145, #238, #199 ) ;
#175 = APPROVAL_PERSON_ORGANIZATION ( #215, #3, #223 ) ;
#176 = APPROVAL_DATE_TIME ( #51, #3 ) ;
#177 = CARTESIAN_POINT ( 'NONE',  ( 0.000000000000000000, 0.000000000000000000, 0.000000000000000000 ) ) ;
#178 = SECURITY_CLASSIFICATION_LEVEL ( 'unclassified' ) ;
#179 = CIRCLE ( 'NONE', #95, 7.750000000000000000 ) ;
#180 = CARTESIAN_POINT ( 'NONE',  ( 0.000000000000000000, 0.000000000000000000, 0.000000000000000000 ) ) ;
#181 = PERSON_AND_ORGANIZATION_ROLE ( 'creator' ) ;
#182 = ORIENTED_EDGE ( 'NONE', *, *, #49, .F. ) ;
#183 = CIRCLE ( 'NONE', #239, 11.00000000000000000 ) ;
#184 = CARTESIAN_POINT ( 'NONE',  ( 0.000000000000000000, 0.000000000000000000, 7.000000000000000000 ) ) ;
#185 = EDGE_CURVE ( 'NONE', #108, #144, #183, .T. ) ;
#186 = ORIENTED_EDGE ( 'NONE', *, *, #185, .F. ) ;
#187 = DIRECTION ( 'NONE',  ( 1.000000000000000000, 0.000000000000000000, -0.000000000000000000 ) ) ;
#188 = CIRCLE ( 'NONE', #192, 11.00000000000000000 ) ;
#189 = AXIS2_PLACEMENT_3D ( 'NONE', #93, #16, #251 ) ;
#190 = PLANE ( 'NONE',  #104 ) ;
#191 = CYLINDRICAL_SURFACE ( 'NONE', #189, 11.00000000000000000 ) ;
#192 = AXIS2_PLACEMENT_3D ( 'NONE', #96, #233, #169 ) ;
#193 = PRODUCT_DEFINITION_FORMATION_WITH_SPECIFIED_SOURCE ( 'LIBOVOLNÝ', '', #41, .NOT_KNOWN. ) ;
#194 = DIRECTION ( 'NONE',  ( 1.000000000000000000, 0.000000000000000000, 0.000000000000000000 ) ) ;
#195 = CALENDAR_DATE ( 2022, 7, 7 ) ;
#196 =( GEOMETRIC_REPRESENTATION_CONTEXT ( 3 ) GLOBAL_UNCERTAINTY_ASSIGNED_CONTEXT ( ( #231 ) ) GLOBAL_UNIT_ASSIGNED_CONTEXT ( ( #242, #120, #30 ) ) REPRESENTATION_CONTEXT ( 'NONE', 'WORKASPACE' ) );
#197 = DIRECTION ( 'NONE',  ( 1.000000000000000000, 0.000000000000000000, 0.000000000000000000 ) ) ;
#198 = DATE_AND_TIME ( #195, #14 ) ;
#199 = DIRECTION ( 'NONE',  ( -1.000000000000000000, 0.000000000000000000, 0.000000000000000000 ) ) ;
#200 = APPROVAL ( #9, 'NEURÈENÝ' ) ;
#201 = CARTESIAN_POINT ( 'NONE',  ( -11.00000000000000000, 0.000000000000000000, 7.000000000000000000 ) ) ;
#202 = APPROVAL_DATE_TIME ( #198, #200 ) ;
#203 = EDGE_LOOP ( 'NONE', ( #150, #182, #166, #126 ) ) ;
#204 = EDGE_LOOP ( 'NONE', ( #12, #124, #221, #168 ) ) ;
#205 = FACE_BOUND ( 'NONE', #52, .T. ) ;
#206 = ORIENTED_EDGE ( 'NONE', *, *, #152, .T. ) ;
#207 = FACE_OUTER_BOUND ( 'NONE', #72, .T. ) ;
#208 = DIRECTION ( 'NONE',  ( -0.000000000000000000, -0.000000000000000000, -1.000000000000000000 ) ) ;
#209 = CC_DESIGN_PERSON_AND_ORGANIZATION_ASSIGNMENT ( #62, #46, ( #44 ) ) ;
#210 = CARTESIAN_POINT ( 'NONE',  ( -7.750000000000000000, 0.000000000000000000, 322.0000000000000000 ) ) ;
#211 = CIRCLE ( 'NONE', #2, 7.750000000000000000 ) ;
#212 = DATE_TIME_ROLE ( 'creation_date' ) ;
#213 = VECTOR ( 'NONE', #114, 1000.000000000000000 ) ;
#214 = AXIS2_PLACEMENT_3D ( 'NONE', #177, #220, #160 ) ;
#215 = PERSON_AND_ORGANIZATION ( #69, #107 ) ;
#216 = CALENDAR_DATE ( 2022, 7, 7 ) ;
#217 = DIRECTION ( 'NONE',  ( 1.000000000000000000, 0.000000000000000000, 0.000000000000000000 ) ) ;
#218 = DATE_TIME_ROLE ( 'classification_date' ) ;
#219 = APPLICATION_CONTEXT ( 'configuration controlled 3d designs of mechanical parts and assemblies' ) ;
#220 = DIRECTION ( 'NONE',  ( 0.000000000000000000, 0.000000000000000000, 1.000000000000000000 ) ) ;
#221 = ORIENTED_EDGE ( 'NONE', *, *, #141, .T. ) ;
#222 = DIRECTION ( 'NONE',  ( 0.000000000000000000, 0.000000000000000000, 1.000000000000000000 ) ) ;
#223 = APPROVAL_ROLE ( '' ) ;
#224 = ORIENTED_EDGE ( 'NONE', *, *, #152, .F. ) ;
#225 = ORIENTED_EDGE ( 'NONE', *, *, #75, .F. ) ;
#226 = EDGE_CURVE ( 'NONE', #88, #156, #128, .T. ) ;
#227 = CARTESIAN_POINT ( 'NONE',  ( -11.00000000000000000, 0.000000000000000000, 0.000000000000000000 ) ) ;
#228 = ORIENTED_EDGE ( 'NONE', *, *, #23, .F. ) ;
#229 = FACE_OUTER_BOUND ( 'NONE', #204, .T. ) ;
#230 = CIRCLE ( 'NONE', #43, 7.750000000000000000 ) ;
#231 = UNCERTAINTY_MEASURE_WITH_UNIT (LENGTH_MEASURE( 1.000000000000000082E-05 ), #242, 'distance_accuracy_value', 'NONE');
#232 = DIRECTION ( 'NONE',  ( 1.000000000000000000, 0.000000000000000000, 0.000000000000000000 ) ) ;
#233 = DIRECTION ( 'NONE',  ( 0.000000000000000000, 0.000000000000000000, 1.000000000000000000 ) ) ;
#234 = DIRECTION ( 'NONE',  ( 0.000000000000000000, 0.000000000000000000, 1.000000000000000000 ) ) ;
#235 = CC_DESIGN_APPROVAL ( #3, ( #44 ) ) ;
#236 = CC_DESIGN_DATE_AND_TIME_ASSIGNMENT ( #101, #218, ( #22 ) ) ;
#237 = CIRCLE ( 'NONE', #151, 7.750000000000000000 ) ;
#238 = DIRECTION ( 'NONE',  ( -0.000000000000000000, -0.000000000000000000, -1.000000000000000000 ) ) ;
#239 = AXIS2_PLACEMENT_3D ( 'NONE', #244, #118, #217 ) ;
#240 = FACE_OUTER_BOUND ( 'NONE', #34, .T. ) ;
#241 = CALENDAR_DATE ( 2022, 7, 7 ) ;
#242 =( LENGTH_UNIT ( ) NAMED_UNIT ( * ) SI_UNIT ( .MILLI., .METRE. ) );
#243 = VERTEX_POINT ( 'NONE', #24 ) ;
#244 = CARTESIAN_POINT ( 'NONE',  ( 0.000000000000000000, 0.000000000000000000, 0.000000000000000000 ) ) ;
#245 = APPROVAL_STATUS ( 'not_yet_approved' ) ;
#246 = ORIENTED_EDGE ( 'NONE', *, *, #141, .F. ) ;
#247 = ORIENTED_EDGE ( 'NONE', *, *, #75, .T. ) ;
#248 = CARTESIAN_POINT ( 'NONE',  ( -7.750000000000000000, 0.000000000000000000, 7.000000000000000000 ) ) ;
#249 = ORIENTED_EDGE ( 'NONE', *, *, #49, .T. ) ;
#250 = VECTOR ( 'NONE', #208, 1000.000000000000000 ) ;
#251 = DIRECTION ( 'NONE',  ( -1.000000000000000000, 0.000000000000000000, 0.000000000000000000 ) ) ;
#252 = ADVANCED_FACE ( 'NONE', ( #240 ), #121, .T. ) ;
#253 = APPLICATION_CONTEXT ( 'configuration controlled 3d designs of mechanical parts and assemblies' ) ;
#254 = CARTESIAN_POINT ( 'NONE',  ( 0.000000000000000000, 0.000000000000000000, 322.0000000000000000 ) ) ;
#255 = DIRECTION ( 'NONE',  ( 0.000000000000000000, 0.000000000000000000, 1.000000000000000000 ) ) ;
ENDSEC;
END-ISO-10303-21;
