ISO-10303-21;
HEADER;
FILE_DESCRIPTION (( 'STEP AP203' ),
    '1' );
FILE_NAME ('df42.STEP',
    '2022-07-07T17:04:50',
    ( '' ),
    ( '' ),
    'SwSTEP 2.0',
    'SolidWorks 2019',
    '' );
FILE_SCHEMA (( 'CONFIG_CONTROL_DESIGN' ));
ENDSEC;

DATA;
#1 = CARTESIAN_POINT ( 'NONE',  ( 0.000000000000000000, 0.000000000000000000, 0.000000000000000000 ) ) ;
#2 = EDGE_CURVE ( 'NONE', #24, #18, #131, .T. ) ;
#3 = ORIENTED_EDGE ( 'NONE', *, *, #162, .T. ) ;
#4 = COORDINATED_UNIVERSAL_TIME_OFFSET ( 1, 0, .AHEAD. ) ;
#5 = AXIS2_PLACEMENT_3D ( 'NONE', #62, #142, #158 ) ;
#6 = CARTESIAN_POINT ( 'NONE',  ( -12.00000000000000178, 0.000000000000000000, 0.000000000000000000 ) ) ;
#7 =( LENGTH_UNIT ( ) NAMED_UNIT ( * ) SI_UNIT ( .MILLI., .METRE. ) );
#8 = PRODUCT_DEFINITION ( 'NEZNÁMÝ', '', #202, #75 ) ;
#9 = CIRCLE ( 'NONE', #129, 9.000000000000001776 ) ;
#10 = CARTESIAN_POINT ( 'NONE',  ( -12.00000000000000178, 0.000000000000000000, 7.000000000000000000 ) ) ;
#11 = CARTESIAN_POINT ( 'NONE',  ( 0.000000000000000000, 0.000000000000000000, 407.0000000000000000 ) ) ;
#12 = AXIS2_PLACEMENT_3D ( 'NONE', #108, #110, #150 ) ;
#13 = DIRECTION ( 'NONE',  ( 1.000000000000000000, 0.000000000000000000, -0.000000000000000000 ) ) ;
#14 = CALENDAR_DATE ( 2022, 7, 7 ) ;
#15 = CC_DESIGN_APPROVAL ( #124, ( #8 ) ) ;
#16 = ORIENTED_EDGE ( 'NONE', *, *, #29, .F. ) ;
#17 = APPLICATION_PROTOCOL_DEFINITION ( 'international standard', 'config_control_design', 1994, #117 ) ;
#18 = VERTEX_POINT ( 'NONE', #115 ) ;
#19 = ORIENTED_EDGE ( 'NONE', *, *, #29, .T. ) ;
#20 = EDGE_CURVE ( 'NONE', #255, #218, #237, .T. ) ;
#21 = DIRECTION ( 'NONE',  ( -0.000000000000000000, -0.000000000000000000, -1.000000000000000000 ) ) ;
#22 = APPROVAL_STATUS ( 'not_yet_approved' ) ;
#23 =( GEOMETRIC_REPRESENTATION_CONTEXT ( 3 ) GLOBAL_UNCERTAINTY_ASSIGNED_CONTEXT ( ( #126 ) ) GLOBAL_UNIT_ASSIGNED_CONTEXT ( ( #7, #63, #43 ) ) REPRESENTATION_CONTEXT ( 'NONE', 'WORKASPACE' ) );
#24 = VERTEX_POINT ( 'NONE', #35 ) ;
#25 = APPROVAL_PERSON_ORGANIZATION ( #70, #65, #149 ) ;
#26 = CARTESIAN_POINT ( 'NONE',  ( 0.000000000000000000, 0.000000000000000000, 0.000000000000000000 ) ) ;
#27 = DIRECTION ( 'NONE',  ( 0.000000000000000000, 0.000000000000000000, 1.000000000000000000 ) ) ;
#28 = LOCAL_TIME ( 19, 4, 50.00000000000000000, #137 ) ;
#29 = EDGE_CURVE ( 'NONE', #33, #37, #208, .T. ) ;
#30 = VECTOR ( 'NONE', #147, 1000.000000000000000 ) ;
#31 = CARTESIAN_POINT ( 'NONE',  ( -9.000000000000001776, 0.000000000000000000, 407.0000000000000000 ) ) ;
#32 = SECURITY_CLASSIFICATION_LEVEL ( 'unclassified' ) ;
#33 = VERTEX_POINT ( 'NONE', #71 ) ;
#34 = SHAPE_DEFINITION_REPRESENTATION ( #42, #195 ) ;
#35 = CARTESIAN_POINT ( 'NONE',  ( -9.000000000000001776, 0.000000000000000000, 407.0000000000000000 ) ) ;
#36 = PERSON_AND_ORGANIZATION ( #239, #234 ) ;
#37 = VERTEX_POINT ( 'NONE', #38 ) ;
#38 = CARTESIAN_POINT ( 'NONE',  ( 12.00000000000000178, 1.469576158976824144E-15, 0.000000000000000000 ) ) ;
#39 = ORIENTED_EDGE ( 'NONE', *, *, #224, .F. ) ;
#40 = PERSON_AND_ORGANIZATION_ROLE ( 'design_owner' ) ;
#41 = APPROVAL ( #120, 'NEURÈENÝ' ) ;
#42 = PRODUCT_DEFINITION_SHAPE ( 'NONE', 'NONE',  #8 ) ;
#43 =( NAMED_UNIT ( * ) SI_UNIT ( $, .STERADIAN. ) SOLID_ANGLE_UNIT ( ) );
#44 = ADVANCED_FACE ( 'NONE', ( #212 ), #206, .T. ) ;
#45 = CARTESIAN_POINT ( 'NONE',  ( 9.000000000000001776, 1.102182119232617911E-15, 407.0000000000000000 ) ) ;
#46 = CARTESIAN_POINT ( 'NONE',  ( 0.000000000000000000, 0.000000000000000000, 7.000000000000000000 ) ) ;
#47 = PRODUCT ( 'df42', 'df42', '', ( #140 ) ) ;
#48 = AXIS2_PLACEMENT_3D ( 'NONE', #46, #81, #181 ) ;
#49 = LOCAL_TIME ( 19, 4, 50.00000000000000000, #56 ) ;
#50 = FACE_OUTER_BOUND ( 'NONE', #232, .T. ) ;
#51 = COORDINATED_UNIVERSAL_TIME_OFFSET ( 1, 0, .AHEAD. ) ;
#52 = DIRECTION ( 'NONE',  ( -0.000000000000000000, -0.000000000000000000, -1.000000000000000000 ) ) ;
#53 = CIRCLE ( 'NONE', #83, 12.00000000000000178 ) ;
#54 = DIRECTION ( 'NONE',  ( 0.000000000000000000, 0.000000000000000000, 1.000000000000000000 ) ) ;
#55 = AXIS2_PLACEMENT_3D ( 'NONE', #152, #54, #203 ) ;
#56 = COORDINATED_UNIVERSAL_TIME_OFFSET ( 1, 0, .AHEAD. ) ;
#57 = CARTESIAN_POINT ( 'NONE',  ( 0.000000000000000000, 0.000000000000000000, 407.0000000000000000 ) ) ;
#58 = APPLICATION_PROTOCOL_DEFINITION ( 'international standard', 'config_control_design', 1994, #250 ) ;
#59 = VECTOR ( 'NONE', #230, 1000.000000000000000 ) ;
#60 = CC_DESIGN_APPROVAL ( #41, ( #202 ) ) ;
#61 = DIRECTION ( 'NONE',  ( 1.000000000000000000, 0.000000000000000000, -0.000000000000000000 ) ) ;
#62 = CARTESIAN_POINT ( 'NONE',  ( 0.000000000000000000, 0.000000000000000000, 0.000000000000000000 ) ) ;
#63 =( NAMED_UNIT ( * ) PLANE_ANGLE_UNIT ( ) SI_UNIT ( $, .RADIAN. ) );
#64 = CIRCLE ( 'NONE', #128, 9.000000000000001776 ) ;
#65 = APPROVAL ( #22, 'NEURÈENÝ' ) ;
#66 = ORIENTED_EDGE ( 'NONE', *, *, #2, .T. ) ;
#67 = CC_DESIGN_PERSON_AND_ORGANIZATION_ASSIGNMENT ( #185, #207, ( #202 ) ) ;
#68 = LOCAL_TIME ( 19, 4, 50.00000000000000000, #4 ) ;
#69 = FACE_OUTER_BOUND ( 'NONE', #121, .T. ) ;
#70 = PERSON_AND_ORGANIZATION ( #239, #234 ) ;
#71 = CARTESIAN_POINT ( 'NONE',  ( 12.00000000000000178, 1.469576158976824144E-15, 7.000000000000000000 ) ) ;
#72 = APPROVAL_DATE_TIME ( #215, #124 ) ;
#73 = EDGE_CURVE ( 'NONE', #210, #193, #113, .T. ) ;
#74 = CARTESIAN_POINT ( 'NONE',  ( 0.000000000000000000, 0.000000000000000000, 7.000000000000000000 ) ) ;
#75 = DESIGN_CONTEXT ( 'detailed design', #117, 'design' ) ;
#76 = ORIENTED_EDGE ( 'NONE', *, *, #197, .T. ) ;
#77 = DIRECTION ( 'NONE',  ( 0.000000000000000000, 0.000000000000000000, 1.000000000000000000 ) ) ;
#78 = EDGE_LOOP ( 'NONE', ( #169, #138, #116, #251 ) ) ;
#79 = PERSON_AND_ORGANIZATION ( #239, #234 ) ;
#80 = CC_DESIGN_SECURITY_CLASSIFICATION ( #156, ( #202 ) ) ;
#81 = DIRECTION ( 'NONE',  ( 0.000000000000000000, 0.000000000000000000, 1.000000000000000000 ) ) ;
#82 = PLANE ( 'NONE',  #5 ) ;
#83 = AXIS2_PLACEMENT_3D ( 'NONE', #1, #77, #155 ) ;
#84 = DIRECTION ( 'NONE',  ( -1.000000000000000000, 0.000000000000000000, 0.000000000000000000 ) ) ;
#85 = EDGE_CURVE ( 'NONE', #193, #37, #53, .T. ) ;
#86 = DIRECTION ( 'NONE',  ( 1.000000000000000000, 0.000000000000000000, 0.000000000000000000 ) ) ;
#87 = AXIS2_PLACEMENT_3D ( 'NONE', #26, #27, #180 ) ;
#88 = APPROVAL_PERSON_ORGANIZATION ( #79, #41, #100 ) ;
#89 = DIRECTION ( 'NONE',  ( -0.000000000000000000, -0.000000000000000000, -1.000000000000000000 ) ) ;
#90 = DATE_AND_TIME ( #194, #28 ) ;
#91 = ORIENTED_EDGE ( 'NONE', *, *, #153, .F. ) ;
#92 = APPROVAL_STATUS ( 'not_yet_approved' ) ;
#93 = EDGE_LOOP ( 'NONE', ( #97, #167 ) ) ;
#94 = DIRECTION ( 'NONE',  ( 0.000000000000000000, 0.000000000000000000, 1.000000000000000000 ) ) ;
#95 = PERSON_AND_ORGANIZATION ( #239, #234 ) ;
#96 = ORIENTED_EDGE ( 'NONE', *, *, #20, .F. ) ;
#97 = ORIENTED_EDGE ( 'NONE', *, *, #85, .F. ) ;
#98 = AXIS2_PLACEMENT_3D ( 'NONE', #226, #200, #242 ) ;
#99 = ADVANCED_FACE ( 'NONE', ( #229, #50 ), #188, .T. ) ;
#100 = APPROVAL_ROLE ( '' ) ;
#101 = ORIENTED_EDGE ( 'NONE', *, *, #85, .T. ) ;
#102 = VECTOR ( 'NONE', #21, 1000.000000000000000 ) ;
#103 = MANIFOLD_SOLID_BREP ( 'Pøidat vysunutím3', #240 ) ;
#104 = DIRECTION ( 'NONE',  ( 1.000000000000000000, 0.000000000000000000, 0.000000000000000000 ) ) ;
#105 = CARTESIAN_POINT ( 'NONE',  ( 9.000000000000001776, 1.102182119232617911E-15, 7.000000000000000000 ) ) ;
#106 = FACE_OUTER_BOUND ( 'NONE', #93, .T. ) ;
#107 = ADVANCED_FACE ( 'NONE', ( #69 ), #233, .T. ) ;
#108 = CARTESIAN_POINT ( 'NONE',  ( 0.000000000000000000, 0.000000000000000000, 407.0000000000000000 ) ) ;
#109 = PERSON_AND_ORGANIZATION_ROLE ( 'creator' ) ;
#110 = DIRECTION ( 'NONE',  ( -0.000000000000000000, -0.000000000000000000, -1.000000000000000000 ) ) ;
#111 = PERSON_AND_ORGANIZATION ( #239, #234 ) ;
#112 = AXIS2_PLACEMENT_3D ( 'NONE', #123, #160, #179 ) ;
#113 = LINE ( 'NONE', #246, #145 ) ;
#114 = ORIENTED_EDGE ( 'NONE', *, *, #224, .T. ) ;
#115 = CARTESIAN_POINT ( 'NONE',  ( -9.000000000000001776, 0.000000000000000000, 7.000000000000000000 ) ) ;
#116 = ORIENTED_EDGE ( 'NONE', *, *, #122, .T. ) ;
#117 = APPLICATION_CONTEXT ( 'configuration controlled 3d designs of mechanical parts and assemblies' ) ;
#118 = CALENDAR_DATE ( 2022, 7, 7 ) ;
#119 = ORIENTED_EDGE ( 'NONE', *, *, #153, .T. ) ;
#120 = APPROVAL_STATUS ( 'not_yet_approved' ) ;
#121 = EDGE_LOOP ( 'NONE', ( #39, #19, #3, #221 ) ) ;
#122 = EDGE_CURVE ( 'NONE', #218, #18, #135, .T. ) ;
#123 = CARTESIAN_POINT ( 'NONE',  ( 0.000000000000000000, 0.000000000000000000, 0.000000000000000000 ) ) ;
#124 = APPROVAL ( #92, 'NEURÈENÝ' ) ;
#125 = PLANE ( 'NONE',  #244 ) ;
#126 = UNCERTAINTY_MEASURE_WITH_UNIT (LENGTH_MEASURE( 1.000000000000000082E-05 ), #7, 'distance_accuracy_value', 'NONE');
#127 = CYLINDRICAL_SURFACE ( 'NONE', #211, 9.000000000000001776 ) ;
#128 = AXIS2_PLACEMENT_3D ( 'NONE', #245, #182, #86 ) ;
#129 = AXIS2_PLACEMENT_3D ( 'NONE', #144, #225, #104 ) ;
#130 = CARTESIAN_POINT ( 'NONE',  ( 0.000000000000000000, 0.000000000000000000, 7.000000000000000000 ) ) ;
#131 = LINE ( 'NONE', #31, #102 ) ;
#132 = APPROVAL_DATE_TIME ( #154, #65 ) ;
#133 = CARTESIAN_POINT ( 'NONE',  ( 0.000000000000000000, 0.000000000000000000, 7.000000000000000000 ) ) ;
#134 = PERSON_AND_ORGANIZATION ( #239, #234 ) ;
#135 = CIRCLE ( 'NONE', #205, 9.000000000000001776 ) ;
#136 = CARTESIAN_POINT ( 'NONE',  ( 9.000000000000001776, 1.102182119232617911E-15, 407.0000000000000000 ) ) ;
#137 = COORDINATED_UNIVERSAL_TIME_OFFSET ( 1, 0, .AHEAD. ) ;
#138 = ORIENTED_EDGE ( 'NONE', *, *, #20, .T. ) ;
#139 = APPROVAL_PERSON_ORGANIZATION ( #36, #124, #168 ) ;
#140 = MECHANICAL_CONTEXT ( 'NONE', #250, 'mechanical' ) ;
#141 = ADVANCED_FACE ( 'NONE', ( #248 ), #186, .T. ) ;
#142 = DIRECTION ( 'NONE',  ( 0.000000000000000000, 0.000000000000000000, 1.000000000000000000 ) ) ;
#143 = EDGE_CURVE ( 'NONE', #210, #33, #163, .T. ) ;
#144 = CARTESIAN_POINT ( 'NONE',  ( 0.000000000000000000, 0.000000000000000000, 7.000000000000000000 ) ) ;
#145 = VECTOR ( 'NONE', #235, 1000.000000000000000 ) ;
#146 = AXIS2_PLACEMENT_3D ( 'NONE', #133, #89, #164 ) ;
#147 = DIRECTION ( 'NONE',  ( -0.000000000000000000, -0.000000000000000000, -1.000000000000000000 ) ) ;
#148 = CARTESIAN_POINT ( 'NONE',  ( 0.000000000000000000, 0.000000000000000000, 7.000000000000000000 ) ) ;
#149 = APPROVAL_ROLE ( '' ) ;
#150 = DIRECTION ( 'NONE',  ( -1.000000000000000000, 0.000000000000000000, 0.000000000000000000 ) ) ;
#151 = CALENDAR_DATE ( 2022, 7, 7 ) ;
#152 = CARTESIAN_POINT ( 'NONE',  ( 0.000000000000000000, 0.000000000000000000, 7.000000000000000000 ) ) ;
#153 = EDGE_CURVE ( 'NONE', #18, #218, #9, .T. ) ;
#154 = DATE_AND_TIME ( #151, #220 ) ;
#155 = DIRECTION ( 'NONE',  ( 1.000000000000000000, 0.000000000000000000, 0.000000000000000000 ) ) ;
#156 = SECURITY_CLASSIFICATION ( '', '', #32 ) ;
#157 = DATE_AND_TIME ( #171, #49 ) ;
#158 = DIRECTION ( 'NONE',  ( 1.000000000000000000, 0.000000000000000000, -0.000000000000000000 ) ) ;
#159 = CC_DESIGN_PERSON_AND_ORGANIZATION_ASSIGNMENT ( #111, #40, ( #47 ) ) ;
#160 = DIRECTION ( 'NONE',  ( 0.000000000000000000, 0.000000000000000000, 1.000000000000000000 ) ) ;
#161 = FACE_OUTER_BOUND ( 'NONE', #238, .T. ) ;
#162 = EDGE_CURVE ( 'NONE', #37, #193, #219, .T. ) ;
#163 = CIRCLE ( 'NONE', #55, 12.00000000000000178 ) ;
#164 = DIRECTION ( 'NONE',  ( -1.000000000000000000, 0.000000000000000000, 0.000000000000000000 ) ) ;
#165 = APPROVAL_DATE_TIME ( #157, #41 ) ;
#166 = CC_DESIGN_PERSON_AND_ORGANIZATION_ASSIGNMENT ( #134, #109, ( #202 ) ) ;
#167 = ORIENTED_EDGE ( 'NONE', *, *, #162, .F. ) ;
#168 = APPROVAL_ROLE ( '' ) ;
#169 = ORIENTED_EDGE ( 'NONE', *, *, #173, .F. ) ;
#170 = DIRECTION ( 'NONE',  ( 1.000000000000000000, 0.000000000000000000, 0.000000000000000000 ) ) ;
#171 = CALENDAR_DATE ( 2022, 7, 7 ) ;
#172 = ORIENTED_EDGE ( 'NONE', *, *, #143, .F. ) ;
#173 = EDGE_CURVE ( 'NONE', #255, #24, #201, .T. ) ;
#174 = CARTESIAN_POINT ( 'NONE',  ( 12.00000000000000178, 1.469576158976824144E-15, 7.000000000000000000 ) ) ;
#175 = LOCAL_TIME ( 19, 4, 50.00000000000000000, #252 ) ;
#176 = ADVANCED_FACE ( 'NONE', ( #106 ), #82, .F. ) ;
#177 = EDGE_LOOP ( 'NONE', ( #16, #172, #236, #101 ) ) ;
#178 = DATE_AND_TIME ( #14, #175 ) ;
#179 = DIRECTION ( 'NONE',  ( 1.000000000000000000, 0.000000000000000000, 0.000000000000000000 ) ) ;
#180 = DIRECTION ( 'NONE',  ( 1.000000000000000000, 0.000000000000000000, 0.000000000000000000 ) ) ;
#181 = DIRECTION ( 'NONE',  ( 1.000000000000000000, 0.000000000000000000, 0.000000000000000000 ) ) ;
#182 = DIRECTION ( 'NONE',  ( 0.000000000000000000, 0.000000000000000000, 1.000000000000000000 ) ) ;
#183 = PRODUCT_RELATED_PRODUCT_CATEGORY ( 'detail', '', ( #47 ) ) ;
#184 = DIRECTION ( 'NONE',  ( 0.000000000000000000, 0.000000000000000000, 1.000000000000000000 ) ) ;
#185 = PERSON_AND_ORGANIZATION ( #239, #234 ) ;
#186 = CYLINDRICAL_SURFACE ( 'NONE', #228, 12.00000000000000178 ) ;
#187 = ORIENTED_EDGE ( 'NONE', *, *, #173, .T. ) ;
#188 = PLANE ( 'NONE',  #196 ) ;
#189 = EDGE_LOOP ( 'NONE', ( #76, #187 ) ) ;
#190 = EDGE_LOOP ( 'NONE', ( #91, #214 ) ) ;
#191 = ORIENTED_EDGE ( 'NONE', *, *, #197, .F. ) ;
#192 = CC_DESIGN_DATE_AND_TIME_ASSIGNMENT ( #90, #249, ( #156 ) ) ;
#193 = VERTEX_POINT ( 'NONE', #6 ) ;
#194 = CALENDAR_DATE ( 2022, 7, 7 ) ;
#195 = ADVANCED_BREP_SHAPE_REPRESENTATION ( 'df42', ( #103, #87 ), #23 ) ;
#196 = AXIS2_PLACEMENT_3D ( 'NONE', #130, #184, #13 ) ;
#197 = EDGE_CURVE ( 'NONE', #24, #255, #64, .T. ) ;
#198 = DIRECTION ( 'NONE',  ( 0.000000000000000000, 0.000000000000000000, 1.000000000000000000 ) ) ;
#199 = CC_DESIGN_PERSON_AND_ORGANIZATION_ASSIGNMENT ( #95, #222, ( #8 ) ) ;
#200 = DIRECTION ( 'NONE',  ( 0.000000000000000000, 0.000000000000000000, 1.000000000000000000 ) ) ;
#201 = CIRCLE ( 'NONE', #98, 9.000000000000001776 ) ;
#202 = PRODUCT_DEFINITION_FORMATION_WITH_SPECIFIED_SOURCE ( 'LIBOVOLNÝ', '', #47, .NOT_KNOWN. ) ;
#203 = DIRECTION ( 'NONE',  ( 1.000000000000000000, 0.000000000000000000, 0.000000000000000000 ) ) ;
#204 = ADVANCED_FACE ( 'NONE', ( #227 ), #125, .T. ) ;
#205 = AXIS2_PLACEMENT_3D ( 'NONE', #148, #94, #170 ) ;
#206 = CYLINDRICAL_SURFACE ( 'NONE', #12, 9.000000000000001776 ) ;
#207 = PERSON_AND_ORGANIZATION_ROLE ( 'design_supplier' ) ;
#208 = LINE ( 'NONE', #174, #59 ) ;
#209 = PERSON_AND_ORGANIZATION ( #239, #234 ) ;
#210 = VERTEX_POINT ( 'NONE', #10 ) ;
#211 = AXIS2_PLACEMENT_3D ( 'NONE', #57, #223, #84 ) ;
#212 = FACE_OUTER_BOUND ( 'NONE', #78, .T. ) ;
#213 = CC_DESIGN_APPROVAL ( #65, ( #156 ) ) ;
#214 = ORIENTED_EDGE ( 'NONE', *, *, #122, .F. ) ;
#215 = DATE_AND_TIME ( #118, #68 ) ;
#216 = CC_DESIGN_DATE_AND_TIME_ASSIGNMENT ( #178, #231, ( #8 ) ) ;
#217 = ORIENTED_EDGE ( 'NONE', *, *, #143, .T. ) ;
#218 = VERTEX_POINT ( 'NONE', #105 ) ;
#219 = CIRCLE ( 'NONE', #112, 12.00000000000000178 ) ;
#220 = LOCAL_TIME ( 19, 4, 50.00000000000000000, #51 ) ;
#221 = ORIENTED_EDGE ( 'NONE', *, *, #73, .F. ) ;
#222 = PERSON_AND_ORGANIZATION_ROLE ( 'creator' ) ;
#223 = DIRECTION ( 'NONE',  ( -0.000000000000000000, -0.000000000000000000, -1.000000000000000000 ) ) ;
#224 = EDGE_CURVE ( 'NONE', #33, #210, #247, .T. ) ;
#225 = DIRECTION ( 'NONE',  ( 0.000000000000000000, 0.000000000000000000, 1.000000000000000000 ) ) ;
#226 = CARTESIAN_POINT ( 'NONE',  ( 0.000000000000000000, 0.000000000000000000, 407.0000000000000000 ) ) ;
#227 = FACE_OUTER_BOUND ( 'NONE', #189, .T. ) ;
#228 = AXIS2_PLACEMENT_3D ( 'NONE', #74, #52, #254 ) ;
#229 = FACE_BOUND ( 'NONE', #190, .T. ) ;
#230 = DIRECTION ( 'NONE',  ( -0.000000000000000000, -0.000000000000000000, -1.000000000000000000 ) ) ;
#231 = DATE_TIME_ROLE ( 'creation_date' ) ;
#232 = EDGE_LOOP ( 'NONE', ( #217, #114 ) ) ;
#233 = CYLINDRICAL_SURFACE ( 'NONE', #146, 12.00000000000000178 ) ;
#234 = ORGANIZATION ( 'NEURÈENÝ', 'NEURÈENÝ', '' ) ;
#235 = DIRECTION ( 'NONE',  ( -0.000000000000000000, -0.000000000000000000, -1.000000000000000000 ) ) ;
#236 = ORIENTED_EDGE ( 'NONE', *, *, #73, .T. ) ;
#237 = LINE ( 'NONE', #136, #30 ) ;
#238 = EDGE_LOOP ( 'NONE', ( #96, #191, #66, #119 ) ) ;
#239 = PERSON ( 'NEURÈENÝ', 'NEURÈENÝ', 'NEURÈENÝ', ('NEURÈENÝ'), ('NEURÈENÝ'), ('NEURÈENÝ') ) ;
#240 = CLOSED_SHELL ( 'NONE', ( #44, #107, #141, #99, #176, #243, #204 ) ) ;
#241 = PERSON_AND_ORGANIZATION_ROLE ( 'classification_officer' ) ;
#242 = DIRECTION ( 'NONE',  ( 1.000000000000000000, 0.000000000000000000, 0.000000000000000000 ) ) ;
#243 = ADVANCED_FACE ( 'NONE', ( #161 ), #127, .T. ) ;
#244 = AXIS2_PLACEMENT_3D ( 'NONE', #11, #198, #61 ) ;
#245 = CARTESIAN_POINT ( 'NONE',  ( 0.000000000000000000, 0.000000000000000000, 407.0000000000000000 ) ) ;
#246 = CARTESIAN_POINT ( 'NONE',  ( -12.00000000000000178, 0.000000000000000000, 7.000000000000000000 ) ) ;
#247 = CIRCLE ( 'NONE', #48, 12.00000000000000178 ) ;
#248 = FACE_OUTER_BOUND ( 'NONE', #177, .T. ) ;
#249 = DATE_TIME_ROLE ( 'classification_date' ) ;
#250 = APPLICATION_CONTEXT ( 'configuration controlled 3d designs of mechanical parts and assemblies' ) ;
#251 = ORIENTED_EDGE ( 'NONE', *, *, #2, .F. ) ;
#252 = COORDINATED_UNIVERSAL_TIME_OFFSET ( 1, 0, .AHEAD. ) ;
#253 = CC_DESIGN_PERSON_AND_ORGANIZATION_ASSIGNMENT ( #209, #241, ( #156 ) ) ;
#254 = DIRECTION ( 'NONE',  ( -1.000000000000000000, 0.000000000000000000, 0.000000000000000000 ) ) ;
#255 = VERTEX_POINT ( 'NONE', #45 ) ;
ENDSEC;
END-ISO-10303-21;
