ISO-10303-21;
HEADER;
FILE_DESCRIPTION (( 'STEP AP203' ),
    '1' );
FILE_NAME ('fd2d.STEP',
    '2022-07-07T17:47:47',
    ( '' ),
    ( '' ),
    'SwSTEP 2.0',
    'SolidWorks 2019',
    '' );
FILE_SCHEMA (( 'CONFIG_CONTROL_DESIGN' ));
ENDSEC;

DATA;
#1 = APPROVAL_STATUS ( 'not_yet_approved' ) ;
#2 = CC_DESIGN_SECURITY_CLASSIFICATION ( #212, ( #106 ) ) ;
#3 = ADVANCED_FACE ( 'NONE', ( #25, #191 ), #100, .T. ) ;
#4 = VERTEX_POINT ( 'NONE', #248 ) ;
#5 = COORDINATED_UNIVERSAL_TIME_OFFSET ( 1, 0, .AHEAD. ) ;
#6 = EDGE_LOOP ( 'NONE', ( #135, #171, #242, #74 ) ) ;
#7 = DATE_TIME_ROLE ( 'creation_date' ) ;
#8 = CARTESIAN_POINT ( 'NONE',  ( 0.000000000000000000, 0.000000000000000000, 0.000000000000000000 ) ) ;
#9 = VERTEX_POINT ( 'NONE', #194 ) ;
#10 = EDGE_CURVE ( 'NONE', #4, #189, #46, .T. ) ;
#11 = ORIENTED_EDGE ( 'NONE', *, *, #173, .T. ) ;
#12 = DATE_AND_TIME ( #228, #24 ) ;
#13 = DIRECTION ( 'NONE',  ( 0.000000000000000000, 0.000000000000000000, 1.000000000000000000 ) ) ;
#14 = DIRECTION ( 'NONE',  ( 1.000000000000000000, 0.000000000000000000, 0.000000000000000000 ) ) ;
#15 = CIRCLE ( 'NONE', #36, 4.000000000000000000 ) ;
#16 = CARTESIAN_POINT ( 'NONE',  ( -2.250000000000000000, 0.000000000000000000, 503.0000000000000000 ) ) ;
#17 = PLANE ( 'NONE',  #23 ) ;
#18 =( LENGTH_UNIT ( ) NAMED_UNIT ( * ) SI_UNIT ( .MILLI., .METRE. ) );
#19 = LOCAL_TIME ( 19, 47, 47.00000000000000000, #78 ) ;
#20 = EDGE_CURVE ( 'NONE', #56, #189, #159, .T. ) ;
#21 = APPROVAL ( #1, 'NEURÈENÝ' ) ;
#22 = EDGE_LOOP ( 'NONE', ( #175, #96, #169, #98 ) ) ;
#23 = AXIS2_PLACEMENT_3D ( 'NONE', #252, #253, #87 ) ;
#24 = LOCAL_TIME ( 19, 47, 47.00000000000000000, #5 ) ;
#25 = FACE_BOUND ( 'NONE', #224, .T. ) ;
#26 = VERTEX_POINT ( 'NONE', #16 ) ;
#27 = APPROVAL_DATE_TIME ( #176, #255 ) ;
#28 = APPROVAL ( #124, 'NEURÈENÝ' ) ;
#29 = DIRECTION ( 'NONE',  ( 0.000000000000000000, 0.000000000000000000, 1.000000000000000000 ) ) ;
#30 = PERSON_AND_ORGANIZATION_ROLE ( 'creator' ) ;
#31 = AXIS2_PLACEMENT_3D ( 'NONE', #142, #35, #66 ) ;
#32 = APPROVAL_PERSON_ORGANIZATION ( #225, #255, #77 ) ;
#33 = FACE_OUTER_BOUND ( 'NONE', #237, .T. ) ;
#34 = DIRECTION ( 'NONE',  ( 1.000000000000000000, 0.000000000000000000, -0.000000000000000000 ) ) ;
#35 = DIRECTION ( 'NONE',  ( -0.000000000000000000, -0.000000000000000000, -1.000000000000000000 ) ) ;
#36 = AXIS2_PLACEMENT_3D ( 'NONE', #123, #231, #14 ) ;
#37 = CARTESIAN_POINT ( 'NONE',  ( 0.000000000000000000, 0.000000000000000000, 503.0000000000000000 ) ) ;
#38 = DATE_AND_TIME ( #250, #147 ) ;
#39 = DIRECTION ( 'NONE',  ( -1.000000000000000000, 0.000000000000000000, 0.000000000000000000 ) ) ;
#40 = DIRECTION ( 'NONE',  ( -1.000000000000000000, 0.000000000000000000, 0.000000000000000000 ) ) ;
#41 = PRODUCT ( 'fd2d', 'fd2d', '', ( #134 ) ) ;
#42 = DESIGN_CONTEXT ( 'detailed design', #54, 'design' ) ;
#43 = DIRECTION ( 'NONE',  ( -0.000000000000000000, -0.000000000000000000, -1.000000000000000000 ) ) ;
#44 = AXIS2_PLACEMENT_3D ( 'NONE', #181, #218, #40 ) ;
#45 = FACE_OUTER_BOUND ( 'NONE', #193, .T. ) ;
#46 = CIRCLE ( 'NONE', #184, 2.250000000000000000 ) ;
#47 = CC_DESIGN_APPROVAL ( #28, ( #212 ) ) ;
#48 = ORIENTED_EDGE ( 'NONE', *, *, #107, .F. ) ;
#49 = APPROVAL_DATE_TIME ( #95, #21 ) ;
#50 = VERTEX_POINT ( 'NONE', #214 ) ;
#51 = VECTOR ( 'NONE', #179, 1000.000000000000000 ) ;
#52 = CC_DESIGN_PERSON_AND_ORGANIZATION_ASSIGNMENT ( #188, #132, ( #190 ) ) ;
#53 = EDGE_LOOP ( 'NONE', ( #73, #91 ) ) ;
#54 = APPLICATION_CONTEXT ( 'configuration controlled 3d designs of mechanical parts and assemblies' ) ;
#55 = COORDINATED_UNIVERSAL_TIME_OFFSET ( 1, 0, .AHEAD. ) ;
#56 = VERTEX_POINT ( 'NONE', #81 ) ;
#57 = PERSON_AND_ORGANIZATION ( #247, #219 ) ;
#58 = DIRECTION ( 'NONE',  ( 1.000000000000000000, 0.000000000000000000, 0.000000000000000000 ) ) ;
#59 = DIRECTION ( 'NONE',  ( 1.000000000000000000, 0.000000000000000000, 0.000000000000000000 ) ) ;
#60 = CIRCLE ( 'NONE', #201, 2.250000000000000000 ) ;
#61 = ADVANCED_FACE ( 'NONE', ( #103 ), #180, .F. ) ;
#62 = DIRECTION ( 'NONE',  ( 1.000000000000000000, 0.000000000000000000, 0.000000000000000000 ) ) ;
#63 = DATE_AND_TIME ( #208, #170 ) ;
#64 = FACE_OUTER_BOUND ( 'NONE', #6, .T. ) ;
#65 = CARTESIAN_POINT ( 'NONE',  ( 0.000000000000000000, 0.000000000000000000, 3.000000000000000000 ) ) ;
#66 = DIRECTION ( 'NONE',  ( -1.000000000000000000, 0.000000000000000000, 0.000000000000000000 ) ) ;
#67 = CC_DESIGN_PERSON_AND_ORGANIZATION_ASSIGNMENT ( #157, #30, ( #106 ) ) ;
#68 = AXIS2_PLACEMENT_3D ( 'NONE', #65, #69, #143 ) ;
#69 = DIRECTION ( 'NONE',  ( -0.000000000000000000, -0.000000000000000000, -1.000000000000000000 ) ) ;
#70 = CARTESIAN_POINT ( 'NONE',  ( 0.000000000000000000, 0.000000000000000000, 0.000000000000000000 ) ) ;
#71 = AXIS2_PLACEMENT_3D ( 'NONE', #127, #195, #244 ) ;
#72 = MANIFOLD_SOLID_BREP ( 'Pøidat vysunutím3', #163 ) ;
#73 = ORIENTED_EDGE ( 'NONE', *, *, #102, .F. ) ;
#74 = ORIENTED_EDGE ( 'NONE', *, *, #10, .T. ) ;
#75 = EDGE_CURVE ( 'NONE', #209, #50, #15, .T. ) ;
#76 = ORIENTED_EDGE ( 'NONE', *, *, #200, .T. ) ;
#77 = APPROVAL_ROLE ( '' ) ;
#78 = COORDINATED_UNIVERSAL_TIME_OFFSET ( 1, 0, .AHEAD. ) ;
#79 = APPROVAL_DATE_TIME ( #38, #28 ) ;
#80 = CARTESIAN_POINT ( 'NONE',  ( 0.000000000000000000, 0.000000000000000000, 3.000000000000000000 ) ) ;
#81 = CARTESIAN_POINT ( 'NONE',  ( 2.250000000000000000, 2.755455298081544285E-16, 503.0000000000000000 ) ) ;
#82 = APPROVAL_ROLE ( '' ) ;
#83 = AXIS2_PLACEMENT_3D ( 'NONE', #148, #220, #251 ) ;
#84 = CC_DESIGN_DATE_AND_TIME_ASSIGNMENT ( #63, #198, ( #212 ) ) ;
#85 =( GEOMETRIC_REPRESENTATION_CONTEXT ( 3 ) GLOBAL_UNCERTAINTY_ASSIGNED_CONTEXT ( ( #105 ) ) GLOBAL_UNIT_ASSIGNED_CONTEXT ( ( #18, #86, #115 ) ) REPRESENTATION_CONTEXT ( 'NONE', 'WORKASPACE' ) );
#86 =( NAMED_UNIT ( * ) PLANE_ANGLE_UNIT ( ) SI_UNIT ( $, .RADIAN. ) );
#87 = DIRECTION ( 'NONE',  ( 1.000000000000000000, 0.000000000000000000, -0.000000000000000000 ) ) ;
#88 = EDGE_CURVE ( 'NONE', #26, #4, #232, .T. ) ;
#89 = CC_DESIGN_PERSON_AND_ORGANIZATION_ASSIGNMENT ( #155, #90, ( #41 ) ) ;
#90 = PERSON_AND_ORGANIZATION_ROLE ( 'design_owner' ) ;
#91 = ORIENTED_EDGE ( 'NONE', *, *, #200, .F. ) ;
#92 = APPLICATION_PROTOCOL_DEFINITION ( 'international standard', 'config_control_design', 1994, #54 ) ;
#93 = ORIENTED_EDGE ( 'NONE', *, *, #230, .T. ) ;
#94 = EDGE_CURVE ( 'NONE', #209, #9, #245, .T. ) ;
#95 = DATE_AND_TIME ( #117, #222 ) ;
#96 = ORIENTED_EDGE ( 'NONE', *, *, #20, .T. ) ;
#97 = PERSON_AND_ORGANIZATION_ROLE ( 'classification_officer' ) ;
#98 = ORIENTED_EDGE ( 'NONE', *, *, #88, .F. ) ;
#99 = APPROVAL_STATUS ( 'not_yet_approved' ) ;
#100 = PLANE ( 'NONE',  #110 ) ;
#101 = CARTESIAN_POINT ( 'NONE',  ( -2.250000000000000000, 0.000000000000000000, 503.0000000000000000 ) ) ;
#102 = EDGE_CURVE ( 'NONE', #9, #227, #192, .T. ) ;
#103 = FACE_OUTER_BOUND ( 'NONE', #53, .T. ) ;
#104 = CARTESIAN_POINT ( 'NONE',  ( -4.000000000000000000, 0.000000000000000000, 3.000000000000000000 ) ) ;
#105 = UNCERTAINTY_MEASURE_WITH_UNIT (LENGTH_MEASURE( 1.000000000000000082E-05 ), #18, 'distance_accuracy_value', 'NONE');
#106 = PRODUCT_DEFINITION_FORMATION_WITH_SPECIFIED_SOURCE ( 'LIBOVOLNÝ', '', #41, .NOT_KNOWN. ) ;
#107 = EDGE_CURVE ( 'NONE', #50, #209, #254, .T. ) ;
#108 = CARTESIAN_POINT ( 'NONE',  ( 0.000000000000000000, 0.000000000000000000, 0.000000000000000000 ) ) ;
#109 = PERSON_AND_ORGANIZATION ( #247, #219 ) ;
#110 = AXIS2_PLACEMENT_3D ( 'NONE', #80, #141, #34 ) ;
#111 = APPROVAL_PERSON_ORGANIZATION ( #226, #21, #174 ) ;
#112 = LINE ( 'NONE', #166, #114 ) ;
#113 = APPLICATION_PROTOCOL_DEFINITION ( 'international standard', 'config_control_design', 1994, #119 ) ;
#114 = VECTOR ( 'NONE', #43, 1000.000000000000000 ) ;
#115 =( NAMED_UNIT ( * ) SI_UNIT ( $, .STERADIAN. ) SOLID_ANGLE_UNIT ( ) );
#116 = APPROVAL_PERSON_ORGANIZATION ( #109, #28, #82 ) ;
#117 = CALENDAR_DATE ( 2022, 7, 7 ) ;
#118 = EDGE_LOOP ( 'NONE', ( #93, #133 ) ) ;
#119 = APPLICATION_CONTEXT ( 'configuration controlled 3d designs of mechanical parts and assemblies' ) ;
#120 = ORIENTED_EDGE ( 'NONE', *, *, #152, .F. ) ;
#121 = SECURITY_CLASSIFICATION_LEVEL ( 'unclassified' ) ;
#122 = DIRECTION ( 'NONE',  ( -0.000000000000000000, -0.000000000000000000, -1.000000000000000000 ) ) ;
#123 = CARTESIAN_POINT ( 'NONE',  ( 0.000000000000000000, 0.000000000000000000, 3.000000000000000000 ) ) ;
#124 = APPROVAL_STATUS ( 'not_yet_approved' ) ;
#125 = ADVANCED_FACE ( 'NONE', ( #64 ), #234, .T. ) ;
#126 = AXIS2_PLACEMENT_3D ( 'NONE', #108, #13, #160 ) ;
#127 = CARTESIAN_POINT ( 'NONE',  ( 0.000000000000000000, 0.000000000000000000, 0.000000000000000000 ) ) ;
#128 = DIRECTION ( 'NONE',  ( -0.000000000000000000, -0.000000000000000000, -1.000000000000000000 ) ) ;
#129 = CYLINDRICAL_SURFACE ( 'NONE', #44, 4.000000000000000000 ) ;
#130 = CC_DESIGN_PERSON_AND_ORGANIZATION_ASSIGNMENT ( #154, #97, ( #212 ) ) ;
#131 = ORIENTED_EDGE ( 'NONE', *, *, #10, .F. ) ;
#132 = PERSON_AND_ORGANIZATION_ROLE ( 'creator' ) ;
#133 = ORIENTED_EDGE ( 'NONE', *, *, #138, .T. ) ;
#134 = MECHANICAL_CONTEXT ( 'NONE', #119, 'mechanical' ) ;
#135 = ORIENTED_EDGE ( 'NONE', *, *, #20, .F. ) ;
#136 = ORIENTED_EDGE ( 'NONE', *, *, #75, .F. ) ;
#137 = PERSON_AND_ORGANIZATION_ROLE ( 'design_supplier' ) ;
#138 = EDGE_CURVE ( 'NONE', #56, #26, #246, .T. ) ;
#139 = DIRECTION ( 'NONE',  ( -0.000000000000000000, -0.000000000000000000, -1.000000000000000000 ) ) ;
#140 = DIRECTION ( 'NONE',  ( 0.000000000000000000, 0.000000000000000000, 1.000000000000000000 ) ) ;
#141 = DIRECTION ( 'NONE',  ( 0.000000000000000000, 0.000000000000000000, 1.000000000000000000 ) ) ;
#142 = CARTESIAN_POINT ( 'NONE',  ( 0.000000000000000000, 0.000000000000000000, 503.0000000000000000 ) ) ;
#143 = DIRECTION ( 'NONE',  ( -1.000000000000000000, 0.000000000000000000, 0.000000000000000000 ) ) ;
#144 = CARTESIAN_POINT ( 'NONE',  ( 0.000000000000000000, 0.000000000000000000, 503.0000000000000000 ) ) ;
#145 = CIRCLE ( 'NONE', #83, 2.250000000000000000 ) ;
#146 = DIRECTION ( 'NONE',  ( 1.000000000000000000, 0.000000000000000000, 0.000000000000000000 ) ) ;
#147 = LOCAL_TIME ( 19, 47, 47.00000000000000000, #196 ) ;
#148 = CARTESIAN_POINT ( 'NONE',  ( 0.000000000000000000, 0.000000000000000000, 503.0000000000000000 ) ) ;
#149 = AXIS2_PLACEMENT_3D ( 'NONE', #144, #177, #58 ) ;
#150 = CC_DESIGN_APPROVAL ( #21, ( #190 ) ) ;
#151 = DIRECTION ( 'NONE',  ( 1.000000000000000000, 0.000000000000000000, 0.000000000000000000 ) ) ;
#152 = EDGE_CURVE ( 'NONE', #189, #4, #60, .T. ) ;
#153 = ORIENTED_EDGE ( 'NONE', *, *, #94, .T. ) ;
#154 = PERSON_AND_ORGANIZATION ( #247, #219 ) ;
#155 = PERSON_AND_ORGANIZATION ( #247, #219 ) ;
#156 = PRODUCT_RELATED_PRODUCT_CATEGORY ( 'detail', '', ( #41 ) ) ;
#157 = PERSON_AND_ORGANIZATION ( #247, #219 ) ;
#158 = CARTESIAN_POINT ( 'NONE',  ( 0.000000000000000000, 0.000000000000000000, 3.000000000000000000 ) ) ;
#159 = LINE ( 'NONE', #197, #185 ) ;
#160 = DIRECTION ( 'NONE',  ( 1.000000000000000000, 0.000000000000000000, 0.000000000000000000 ) ) ;
#161 = CARTESIAN_POINT ( 'NONE',  ( 0.000000000000000000, 0.000000000000000000, 3.000000000000000000 ) ) ;
#162 = CYLINDRICAL_SURFACE ( 'NONE', #68, 4.000000000000000000 ) ;
#163 = CLOSED_SHELL ( 'NONE', ( #241, #167, #233, #3, #61, #125, #223 ) ) ;
#164 = AXIS2_PLACEMENT_3D ( 'NONE', #37, #128, #39 ) ;
#165 = FACE_OUTER_BOUND ( 'NONE', #118, .T. ) ;
#166 = CARTESIAN_POINT ( 'NONE',  ( 4.000000000000000000, 4.898587196589412829E-16, 3.000000000000000000 ) ) ;
#167 = ADVANCED_FACE ( 'NONE', ( #33 ), #129, .T. ) ;
#168 = AXIS2_PLACEMENT_3D ( 'NONE', #161, #249, #59 ) ;
#169 = ORIENTED_EDGE ( 'NONE', *, *, #152, .T. ) ;
#170 = LOCAL_TIME ( 19, 47, 47.00000000000000000, #172 ) ;
#171 = ORIENTED_EDGE ( 'NONE', *, *, #230, .F. ) ;
#172 = COORDINATED_UNIVERSAL_TIME_OFFSET ( 1, 0, .AHEAD. ) ;
#173 = EDGE_CURVE ( 'NONE', #50, #227, #112, .T. ) ;
#174 = APPROVAL_ROLE ( '' ) ;
#175 = ORIENTED_EDGE ( 'NONE', *, *, #138, .F. ) ;
#176 = DATE_AND_TIME ( #210, #19 ) ;
#177 = DIRECTION ( 'NONE',  ( 0.000000000000000000, 0.000000000000000000, 1.000000000000000000 ) ) ;
#178 = VECTOR ( 'NONE', #139, 1000.000000000000000 ) ;
#179 = DIRECTION ( 'NONE',  ( -0.000000000000000000, -0.000000000000000000, -1.000000000000000000 ) ) ;
#180 = PLANE ( 'NONE',  #71 ) ;
#181 = CARTESIAN_POINT ( 'NONE',  ( 0.000000000000000000, 0.000000000000000000, 3.000000000000000000 ) ) ;
#182 = CC_DESIGN_APPROVAL ( #255, ( #106 ) ) ;
#183 = CARTESIAN_POINT ( 'NONE',  ( -4.000000000000000000, 0.000000000000000000, 3.000000000000000000 ) ) ;
#184 = AXIS2_PLACEMENT_3D ( 'NONE', #158, #229, #62 ) ;
#185 = VECTOR ( 'NONE', #122, 1000.000000000000000 ) ;
#186 = ORIENTED_EDGE ( 'NONE', *, *, #75, .T. ) ;
#187 = CIRCLE ( 'NONE', #239, 4.000000000000000000 ) ;
#188 = PERSON_AND_ORGANIZATION ( #247, #219 ) ;
#189 = VERTEX_POINT ( 'NONE', #202 ) ;
#190 = PRODUCT_DEFINITION ( 'NEZNÁMÝ', '', #106, #42 ) ;
#191 = FACE_OUTER_BOUND ( 'NONE', #207, .T. ) ;
#192 = CIRCLE ( 'NONE', #126, 4.000000000000000000 ) ;
#193 = EDGE_LOOP ( 'NONE', ( #206, #136, #153, #204 ) ) ;
#194 = CARTESIAN_POINT ( 'NONE',  ( -4.000000000000000000, 0.000000000000000000, 0.000000000000000000 ) ) ;
#195 = DIRECTION ( 'NONE',  ( 0.000000000000000000, 0.000000000000000000, 1.000000000000000000 ) ) ;
#196 = COORDINATED_UNIVERSAL_TIME_OFFSET ( 1, 0, .AHEAD. ) ;
#197 = CARTESIAN_POINT ( 'NONE',  ( 2.250000000000000000, 2.755455298081544285E-16, 503.0000000000000000 ) ) ;
#198 = DATE_TIME_ROLE ( 'classification_date' ) ;
#199 = DIRECTION ( 'NONE',  ( 0.000000000000000000, 0.000000000000000000, 1.000000000000000000 ) ) ;
#200 = EDGE_CURVE ( 'NONE', #227, #9, #187, .T. ) ;
#201 = AXIS2_PLACEMENT_3D ( 'NONE', #211, #140, #213 ) ;
#202 = CARTESIAN_POINT ( 'NONE',  ( 2.250000000000000000, 2.755455298081544285E-16, 3.000000000000000000 ) ) ;
#203 = CC_DESIGN_DATE_AND_TIME_ASSIGNMENT ( #12, #7, ( #190 ) ) ;
#204 = ORIENTED_EDGE ( 'NONE', *, *, #102, .T. ) ;
#205 = ADVANCED_BREP_SHAPE_REPRESENTATION ( 'fd2d', ( #72, #236 ), #85 ) ;
#206 = ORIENTED_EDGE ( 'NONE', *, *, #173, .F. ) ;
#207 = EDGE_LOOP ( 'NONE', ( #186, #240 ) ) ;
#208 = CALENDAR_DATE ( 2022, 7, 7 ) ;
#209 = VERTEX_POINT ( 'NONE', #183 ) ;
#210 = CALENDAR_DATE ( 2022, 7, 7 ) ;
#211 = CARTESIAN_POINT ( 'NONE',  ( 0.000000000000000000, 0.000000000000000000, 3.000000000000000000 ) ) ;
#212 = SECURITY_CLASSIFICATION ( '', '', #121 ) ;
#213 = DIRECTION ( 'NONE',  ( 1.000000000000000000, 0.000000000000000000, 0.000000000000000000 ) ) ;
#214 = CARTESIAN_POINT ( 'NONE',  ( 4.000000000000000000, 4.898587196589412829E-16, 3.000000000000000000 ) ) ;
#215 = CC_DESIGN_PERSON_AND_ORGANIZATION_ASSIGNMENT ( #57, #137, ( #106 ) ) ;
#216 = FACE_OUTER_BOUND ( 'NONE', #22, .T. ) ;
#217 = CYLINDRICAL_SURFACE ( 'NONE', #164, 2.250000000000000000 ) ;
#218 = DIRECTION ( 'NONE',  ( -0.000000000000000000, -0.000000000000000000, -1.000000000000000000 ) ) ;
#219 = ORGANIZATION ( 'NEURÈENÝ', 'NEURÈENÝ', '' ) ;
#220 = DIRECTION ( 'NONE',  ( 0.000000000000000000, 0.000000000000000000, 1.000000000000000000 ) ) ;
#221 = PRODUCT_DEFINITION_SHAPE ( 'NONE', 'NONE',  #190 ) ;
#222 = LOCAL_TIME ( 19, 47, 47.00000000000000000, #55 ) ;
#223 = ADVANCED_FACE ( 'NONE', ( #165 ), #17, .T. ) ;
#224 = EDGE_LOOP ( 'NONE', ( #131, #120 ) ) ;
#225 = PERSON_AND_ORGANIZATION ( #247, #219 ) ;
#226 = PERSON_AND_ORGANIZATION ( #247, #219 ) ;
#227 = VERTEX_POINT ( 'NONE', #235 ) ;
#228 = CALENDAR_DATE ( 2022, 7, 7 ) ;
#229 = DIRECTION ( 'NONE',  ( 0.000000000000000000, 0.000000000000000000, 1.000000000000000000 ) ) ;
#230 = EDGE_CURVE ( 'NONE', #26, #56, #145, .T. ) ;
#231 = DIRECTION ( 'NONE',  ( 0.000000000000000000, 0.000000000000000000, 1.000000000000000000 ) ) ;
#232 = LINE ( 'NONE', #101, #178 ) ;
#233 = ADVANCED_FACE ( 'NONE', ( #45 ), #162, .T. ) ;
#234 = CYLINDRICAL_SURFACE ( 'NONE', #31, 2.250000000000000000 ) ;
#235 = CARTESIAN_POINT ( 'NONE',  ( 4.000000000000000000, 4.898587196589412829E-16, 0.000000000000000000 ) ) ;
#236 = AXIS2_PLACEMENT_3D ( 'NONE', #8, #29, #151 ) ;
#237 = EDGE_LOOP ( 'NONE', ( #48, #11, #76, #238 ) ) ;
#238 = ORIENTED_EDGE ( 'NONE', *, *, #94, .F. ) ;
#239 = AXIS2_PLACEMENT_3D ( 'NONE', #70, #199, #146 ) ;
#240 = ORIENTED_EDGE ( 'NONE', *, *, #107, .T. ) ;
#241 = ADVANCED_FACE ( 'NONE', ( #216 ), #217, .T. ) ;
#242 = ORIENTED_EDGE ( 'NONE', *, *, #88, .T. ) ;
#243 = SHAPE_DEFINITION_REPRESENTATION ( #221, #205 ) ;
#244 = DIRECTION ( 'NONE',  ( 1.000000000000000000, 0.000000000000000000, -0.000000000000000000 ) ) ;
#245 = LINE ( 'NONE', #104, #51 ) ;
#246 = CIRCLE ( 'NONE', #149, 2.250000000000000000 ) ;
#247 = PERSON ( 'NEURÈENÝ', 'NEURÈENÝ', 'NEURÈENÝ', ('NEURÈENÝ'), ('NEURÈENÝ'), ('NEURÈENÝ') ) ;
#248 = CARTESIAN_POINT ( 'NONE',  ( -2.250000000000000000, 0.000000000000000000, 3.000000000000000000 ) ) ;
#249 = DIRECTION ( 'NONE',  ( 0.000000000000000000, 0.000000000000000000, 1.000000000000000000 ) ) ;
#250 = CALENDAR_DATE ( 2022, 7, 7 ) ;
#251 = DIRECTION ( 'NONE',  ( 1.000000000000000000, 0.000000000000000000, 0.000000000000000000 ) ) ;
#252 = CARTESIAN_POINT ( 'NONE',  ( 0.000000000000000000, 0.000000000000000000, 503.0000000000000000 ) ) ;
#253 = DIRECTION ( 'NONE',  ( 0.000000000000000000, 0.000000000000000000, 1.000000000000000000 ) ) ;
#254 = CIRCLE ( 'NONE', #168, 4.000000000000000000 ) ;
#255 = APPROVAL ( #99, 'NEURÈENÝ' ) ;
ENDSEC;
END-ISO-10303-21;
