ISO-10303-21;
HEADER;
FILE_DESCRIPTION (( 'STEP AP203' ),
    '1' );
FILE_NAME ('d88b.STEP',
    '2022-07-07T17:09:21',
    ( '' ),
    ( '' ),
    'SwSTEP 2.0',
    'SolidWorks 2019',
    '' );
FILE_SCHEMA (( 'CONFIG_CONTROL_DESIGN' ));
ENDSEC;

DATA;
#1 = DIRECTION ( 'NONE',  ( 0.000000000000000000, 0.000000000000000000, 1.000000000000000000 ) ) ;
#2 = FACE_OUTER_BOUND ( 'NONE', #26, .T. ) ;
#3 = ORIENTED_EDGE ( 'NONE', *, *, #131, .T. ) ;
#4 = AXIS2_PLACEMENT_3D ( 'NONE', #12, #108, #141 ) ;
#5 = CLOSED_SHELL ( 'NONE', ( #61, #203, #115, #248, #155, #216, #226 ) ) ;
#6 = COORDINATED_UNIVERSAL_TIME_OFFSET ( 1, 0, .AHEAD. ) ;
#7 = COORDINATED_UNIVERSAL_TIME_OFFSET ( 1, 0, .AHEAD. ) ;
#8 = MECHANICAL_CONTEXT ( 'NONE', #113, 'mechanical' ) ;
#9 = APPROVAL_DATE_TIME ( #182, #193 ) ;
#10 =( LENGTH_UNIT ( ) NAMED_UNIT ( * ) SI_UNIT ( .MILLI., .METRE. ) );
#11 = AXIS2_PLACEMENT_3D ( 'NONE', #87, #162, #243 ) ;
#12 = CARTESIAN_POINT ( 'NONE',  ( 0.000000000000000000, 0.000000000000000000, 167.0000000000000000 ) ) ;
#13 = EDGE_CURVE ( 'NONE', #124, #55, #196, .T. ) ;
#14 = APPROVAL_ROLE ( '' ) ;
#15 = AXIS2_PLACEMENT_3D ( 'NONE', #97, #171, #232 ) ;
#16 = APPROVAL_STATUS ( 'not_yet_approved' ) ;
#17 = APPROVAL_PERSON_ORGANIZATION ( #161, #193, #126 ) ;
#18 = CARTESIAN_POINT ( 'NONE',  ( 0.000000000000000000, 0.000000000000000000, 167.0000000000000000 ) ) ;
#19 = EDGE_LOOP ( 'NONE', ( #57, #233, #103, #36 ) ) ;
#20 = CARTESIAN_POINT ( 'NONE',  ( 0.000000000000000000, 0.000000000000000000, 7.000000000000000000 ) ) ;
#21 = ORIENTED_EDGE ( 'NONE', *, *, #27, .T. ) ;
#22 = CARTESIAN_POINT ( 'NONE',  ( -7.750000000000000000, 0.000000000000000000, 167.0000000000000000 ) ) ;
#23 = ORIENTED_EDGE ( 'NONE', *, *, #221, .F. ) ;
#24 = CARTESIAN_POINT ( 'NONE',  ( 0.000000000000000000, 0.000000000000000000, 167.0000000000000000 ) ) ;
#25 = CIRCLE ( 'NONE', #116, 7.750000000000000000 ) ;
#26 = EDGE_LOOP ( 'NONE', ( #59, #211, #3, #242 ) ) ;
#27 = EDGE_CURVE ( 'NONE', #235, #194, #40, .T. ) ;
#28 = PERSON_AND_ORGANIZATION_ROLE ( 'design_owner' ) ;
#29 = CARTESIAN_POINT ( 'NONE',  ( 11.00000000000000000, 1.347111479062088405E-15, 7.000000000000000000 ) ) ;
#30 = PERSON_AND_ORGANIZATION ( #149, #250 ) ;
#31 = CARTESIAN_POINT ( 'NONE',  ( 0.000000000000000000, 0.000000000000000000, 7.000000000000000000 ) ) ;
#32 = PERSON_AND_ORGANIZATION ( #149, #250 ) ;
#33 = ADVANCED_BREP_SHAPE_REPRESENTATION ( 'd88b', ( #204, #184 ), #105 ) ;
#34 = VECTOR ( 'NONE', #35, 1000.000000000000000 ) ;
#35 = DIRECTION ( 'NONE',  ( -0.000000000000000000, -0.000000000000000000, -1.000000000000000000 ) ) ;
#36 = ORIENTED_EDGE ( 'NONE', *, *, #206, .T. ) ;
#37 = VECTOR ( 'NONE', #197, 1000.000000000000000 ) ;
#38 = ORIENTED_EDGE ( 'NONE', *, *, #158, .F. ) ;
#39 = ORIENTED_EDGE ( 'NONE', *, *, #179, .T. ) ;
#40 = LINE ( 'NONE', #210, #37 ) ;
#41 = VERTEX_POINT ( 'NONE', #121 ) ;
#42 = CIRCLE ( 'NONE', #187, 11.00000000000000000 ) ;
#43 = DATE_AND_TIME ( #65, #189 ) ;
#44 = DIRECTION ( 'NONE',  ( 1.000000000000000000, 0.000000000000000000, 0.000000000000000000 ) ) ;
#45 = COORDINATED_UNIVERSAL_TIME_OFFSET ( 1, 0, .AHEAD. ) ;
#46 = PLANE ( 'NONE',  #11 ) ;
#47 = PERSON_AND_ORGANIZATION ( #149, #250 ) ;
#48 = APPLICATION_PROTOCOL_DEFINITION ( 'international standard', 'config_control_design', 1994, #113 ) ;
#49 = CC_DESIGN_PERSON_AND_ORGANIZATION_ASSIGNMENT ( #169, #249, ( #139 ) ) ;
#50 = CC_DESIGN_PERSON_AND_ORGANIZATION_ASSIGNMENT ( #127, #28, ( #166 ) ) ;
#51 = SECURITY_CLASSIFICATION ( '', '', #163 ) ;
#52 = DIRECTION ( 'NONE',  ( 0.000000000000000000, 0.000000000000000000, 1.000000000000000000 ) ) ;
#53 = VERTEX_POINT ( 'NONE', #192 ) ;
#54 = CYLINDRICAL_SURFACE ( 'NONE', #15, 11.00000000000000000 ) ;
#55 = VERTEX_POINT ( 'NONE', #176 ) ;
#56 = DIRECTION ( 'NONE',  ( -0.000000000000000000, -0.000000000000000000, -1.000000000000000000 ) ) ;
#57 = ORIENTED_EDGE ( 'NONE', *, *, #13, .F. ) ;
#58 = CARTESIAN_POINT ( 'NONE',  ( 0.000000000000000000, 0.000000000000000000, 7.000000000000000000 ) ) ;
#59 = ORIENTED_EDGE ( 'NONE', *, *, #72, .F. ) ;
#60 = CARTESIAN_POINT ( 'NONE',  ( 7.750000000000000000, 9.491012693391987787E-16, 167.0000000000000000 ) ) ;
#61 = ADVANCED_FACE ( 'NONE', ( #2 ), #236, .T. ) ;
#62 = EDGE_LOOP ( 'NONE', ( #175, #209 ) ) ;
#63 = CARTESIAN_POINT ( 'NONE',  ( -11.00000000000000000, 0.000000000000000000, 7.000000000000000000 ) ) ;
#64 = EDGE_CURVE ( 'NONE', #53, #124, #68, .T. ) ;
#65 = CALENDAR_DATE ( 2022, 7, 7 ) ;
#66 = APPROVAL_STATUS ( 'not_yet_approved' ) ;
#67 = DIRECTION ( 'NONE',  ( -0.000000000000000000, -0.000000000000000000, -1.000000000000000000 ) ) ;
#68 = CIRCLE ( 'NONE', #74, 7.750000000000000000 ) ;
#69 = PERSON_AND_ORGANIZATION ( #149, #250 ) ;
#70 = DIRECTION ( 'NONE',  ( 0.000000000000000000, 0.000000000000000000, 1.000000000000000000 ) ) ;
#71 = CALENDAR_DATE ( 2022, 7, 7 ) ;
#72 = EDGE_CURVE ( 'NONE', #124, #53, #25, .T. ) ;
#73 = UNCERTAINTY_MEASURE_WITH_UNIT (LENGTH_MEASURE( 1.000000000000000082E-05 ), #10, 'distance_accuracy_value', 'NONE');
#74 = AXIS2_PLACEMENT_3D ( 'NONE', #138, #214, #172 ) ;
#75 = CC_DESIGN_PERSON_AND_ORGANIZATION_ASSIGNMENT ( #32, #93, ( #51 ) ) ;
#76 = APPROVAL_PERSON_ORGANIZATION ( #164, #95, #201 ) ;
#77 = AXIS2_PLACEMENT_3D ( 'NONE', #58, #153, #241 ) ;
#78 = EDGE_LOOP ( 'NONE', ( #38, #191 ) ) ;
#79 = FACE_OUTER_BOUND ( 'NONE', #78, .T. ) ;
#80 = DIRECTION ( 'NONE',  ( 1.000000000000000000, 0.000000000000000000, 0.000000000000000000 ) ) ;
#81 = EDGE_LOOP ( 'NONE', ( #157, #135 ) ) ;
#82 = CARTESIAN_POINT ( 'NONE',  ( 0.000000000000000000, 0.000000000000000000, 0.000000000000000000 ) ) ;
#83 = CARTESIAN_POINT ( 'NONE',  ( 0.000000000000000000, 0.000000000000000000, 0.000000000000000000 ) ) ;
#84 = PRODUCT_RELATED_PRODUCT_CATEGORY ( 'detail', '', ( #166 ) ) ;
#85 = ORIENTED_EDGE ( 'NONE', *, *, #221, .T. ) ;
#86 = DATE_AND_TIME ( #71, #215 ) ;
#87 = CARTESIAN_POINT ( 'NONE',  ( 0.000000000000000000, 0.000000000000000000, 7.000000000000000000 ) ) ;
#88 = DIRECTION ( 'NONE',  ( 1.000000000000000000, 0.000000000000000000, 0.000000000000000000 ) ) ;
#89 = APPROVAL_DATE_TIME ( #92, #104 ) ;
#90 =( NAMED_UNIT ( * ) PLANE_ANGLE_UNIT ( ) SI_UNIT ( $, .RADIAN. ) );
#91 = DIRECTION ( 'NONE',  ( 0.000000000000000000, 0.000000000000000000, 1.000000000000000000 ) ) ;
#92 = DATE_AND_TIME ( #224, #217 ) ;
#93 = PERSON_AND_ORGANIZATION_ROLE ( 'classification_officer' ) ;
#94 = AXIS2_PLACEMENT_3D ( 'NONE', #18, #137, #212 ) ;
#95 = APPROVAL ( #66, 'NEURÈENÝ' ) ;
#96 = EDGE_CURVE ( 'NONE', #53, #120, #102, .T. ) ;
#97 = CARTESIAN_POINT ( 'NONE',  ( 0.000000000000000000, 0.000000000000000000, 7.000000000000000000 ) ) ;
#98 = ORIENTED_EDGE ( 'NONE', *, *, #190, .T. ) ;
#99 = CARTESIAN_POINT ( 'NONE',  ( 7.750000000000000000, 9.491012693391987787E-16, 167.0000000000000000 ) ) ;
#100 = ORIENTED_EDGE ( 'NONE', *, *, #190, .F. ) ;
#101 = DIRECTION ( 'NONE',  ( -0.000000000000000000, -0.000000000000000000, -1.000000000000000000 ) ) ;
#102 = LINE ( 'NONE', #22, #168 ) ;
#103 = ORIENTED_EDGE ( 'NONE', *, *, #96, .T. ) ;
#104 = APPROVAL ( #16, 'NEURÈENÝ' ) ;
#105 =( GEOMETRIC_REPRESENTATION_CONTEXT ( 3 ) GLOBAL_UNCERTAINTY_ASSIGNED_CONTEXT ( ( #73 ) ) GLOBAL_UNIT_ASSIGNED_CONTEXT ( ( #10, #90, #144 ) ) REPRESENTATION_CONTEXT ( 'NONE', 'WORKASPACE' ) );
#106 = CARTESIAN_POINT ( 'NONE',  ( 0.000000000000000000, 0.000000000000000000, 7.000000000000000000 ) ) ;
#107 = APPLICATION_PROTOCOL_DEFINITION ( 'international standard', 'config_control_design', 1994, #133 ) ;
#108 = DIRECTION ( 'NONE',  ( 0.000000000000000000, 0.000000000000000000, 1.000000000000000000 ) ) ;
#109 = PERSON_AND_ORGANIZATION_ROLE ( 'creator' ) ;
#110 = DIRECTION ( 'NONE',  ( 0.000000000000000000, 0.000000000000000000, 1.000000000000000000 ) ) ;
#111 = CC_DESIGN_APPROVAL ( #95, ( #139 ) ) ;
#112 = VECTOR ( 'NONE', #56, 1000.000000000000000 ) ;
#113 = APPLICATION_CONTEXT ( 'configuration controlled 3d designs of mechanical parts and assemblies' ) ;
#114 = CC_DESIGN_PERSON_AND_ORGANIZATION_ASSIGNMENT ( #47, #188, ( #230 ) ) ;
#115 = ADVANCED_FACE ( 'NONE', ( #119 ), #54, .T. ) ;
#116 = AXIS2_PLACEMENT_3D ( 'NONE', #24, #195, #253 ) ;
#117 = AXIS2_PLACEMENT_3D ( 'NONE', #202, #67, #165 ) ;
#118 = CC_DESIGN_APPROVAL ( #193, ( #51 ) ) ;
#119 = FACE_OUTER_BOUND ( 'NONE', #178, .T. ) ;
#120 = VERTEX_POINT ( 'NONE', #177 ) ;
#121 = CARTESIAN_POINT ( 'NONE',  ( 11.00000000000000000, 1.347111479062088405E-15, 0.000000000000000000 ) ) ;
#122 = ORIENTED_EDGE ( 'NONE', *, *, #158, .T. ) ;
#123 = AXIS2_PLACEMENT_3D ( 'NONE', #31, #110, #88 ) ;
#124 = VERTEX_POINT ( 'NONE', #99 ) ;
#125 = DIRECTION ( 'NONE',  ( -1.000000000000000000, 0.000000000000000000, 0.000000000000000000 ) ) ;
#126 = APPROVAL_ROLE ( '' ) ;
#127 = PERSON_AND_ORGANIZATION ( #149, #250 ) ;
#128 = FACE_OUTER_BOUND ( 'NONE', #81, .T. ) ;
#129 = DATE_TIME_ROLE ( 'creation_date' ) ;
#130 = PLANE ( 'NONE',  #4 ) ;
#131 = EDGE_CURVE ( 'NONE', #55, #120, #231, .T. ) ;
#132 = APPROVAL_PERSON_ORGANIZATION ( #69, #104, #14 ) ;
#133 = APPLICATION_CONTEXT ( 'configuration controlled 3d designs of mechanical parts and assemblies' ) ;
#134 = CARTESIAN_POINT ( 'NONE',  ( -11.00000000000000000, 0.000000000000000000, 0.000000000000000000 ) ) ;
#135 = ORIENTED_EDGE ( 'NONE', *, *, #72, .T. ) ;
#136 = CYLINDRICAL_SURFACE ( 'NONE', #254, 11.00000000000000000 ) ;
#137 = DIRECTION ( 'NONE',  ( -0.000000000000000000, -0.000000000000000000, -1.000000000000000000 ) ) ;
#138 = CARTESIAN_POINT ( 'NONE',  ( 0.000000000000000000, 0.000000000000000000, 167.0000000000000000 ) ) ;
#139 = PRODUCT_DEFINITION ( 'NEZNÁMÝ', '', #230, #228 ) ;
#140 = LINE ( 'NONE', #156, #112 ) ;
#141 = DIRECTION ( 'NONE',  ( 1.000000000000000000, 0.000000000000000000, -0.000000000000000000 ) ) ;
#142 = LOCAL_TIME ( 19, 9, 21.00000000000000000, #7 ) ;
#143 = SHAPE_DEFINITION_REPRESENTATION ( #205, #33 ) ;
#144 =( NAMED_UNIT ( * ) SI_UNIT ( $, .STERADIAN. ) SOLID_ANGLE_UNIT ( ) );
#145 = CYLINDRICAL_SURFACE ( 'NONE', #117, 7.750000000000000000 ) ;
#146 = DIRECTION ( 'NONE',  ( 1.000000000000000000, 0.000000000000000000, 0.000000000000000000 ) ) ;
#147 = APPROVAL_DATE_TIME ( #86, #95 ) ;
#148 = AXIS2_PLACEMENT_3D ( 'NONE', #245, #91, #44 ) ;
#149 = PERSON ( 'NEURÈENÝ', 'NEURÈENÝ', 'NEURÈENÝ', ('NEURÈENÝ'), ('NEURÈENÝ'), ('NEURÈENÝ') ) ;
#150 = AXIS2_PLACEMENT_3D ( 'NONE', #207, #52, #252 ) ;
#151 = PLANE ( 'NONE',  #218 ) ;
#152 = ORIENTED_EDGE ( 'NONE', *, *, #179, .F. ) ;
#153 = DIRECTION ( 'NONE',  ( 0.000000000000000000, 0.000000000000000000, 1.000000000000000000 ) ) ;
#154 = EDGE_LOOP ( 'NONE', ( #39, #85 ) ) ;
#155 = ADVANCED_FACE ( 'NONE', ( #79 ), #151, .F. ) ;
#156 = CARTESIAN_POINT ( 'NONE',  ( 11.00000000000000000, 1.347111479062088405E-15, 7.000000000000000000 ) ) ;
#157 = ORIENTED_EDGE ( 'NONE', *, *, #64, .T. ) ;
#158 = EDGE_CURVE ( 'NONE', #194, #41, #42, .T. ) ;
#159 = DIRECTION ( 'NONE',  ( 1.000000000000000000, 0.000000000000000000, -0.000000000000000000 ) ) ;
#160 = CC_DESIGN_SECURITY_CLASSIFICATION ( #51, ( #230 ) ) ;
#161 = PERSON_AND_ORGANIZATION ( #149, #250 ) ;
#162 = DIRECTION ( 'NONE',  ( 0.000000000000000000, 0.000000000000000000, 1.000000000000000000 ) ) ;
#163 = SECURITY_CLASSIFICATION_LEVEL ( 'unclassified' ) ;
#164 = PERSON_AND_ORGANIZATION ( #149, #250 ) ;
#165 = DIRECTION ( 'NONE',  ( -1.000000000000000000, 0.000000000000000000, 0.000000000000000000 ) ) ;
#166 = PRODUCT ( 'd88b', 'd88b', '', ( #8 ) ) ;
#167 = DATE_TIME_ROLE ( 'classification_date' ) ;
#168 = VECTOR ( 'NONE', #101, 1000.000000000000000 ) ;
#169 = PERSON_AND_ORGANIZATION ( #149, #250 ) ;
#170 = CC_DESIGN_DATE_AND_TIME_ASSIGNMENT ( #43, #167, ( #51 ) ) ;
#171 = DIRECTION ( 'NONE',  ( -0.000000000000000000, -0.000000000000000000, -1.000000000000000000 ) ) ;
#172 = DIRECTION ( 'NONE',  ( 1.000000000000000000, 0.000000000000000000, 0.000000000000000000 ) ) ;
#173 = CIRCLE ( 'NONE', #148, 11.00000000000000000 ) ;
#174 = CC_DESIGN_APPROVAL ( #104, ( #230 ) ) ;
#175 = ORIENTED_EDGE ( 'NONE', *, *, #206, .F. ) ;
#176 = CARTESIAN_POINT ( 'NONE',  ( 7.750000000000000000, 9.491012693391987787E-16, 7.000000000000000000 ) ) ;
#177 = CARTESIAN_POINT ( 'NONE',  ( -7.750000000000000000, 0.000000000000000000, 7.000000000000000000 ) ) ;
#178 = EDGE_LOOP ( 'NONE', ( #100, #152, #21, #122 ) ) ;
#179 = EDGE_CURVE ( 'NONE', #235, #255, #186, .T. ) ;
#180 = DIRECTION ( 'NONE',  ( 0.000000000000000000, 0.000000000000000000, 1.000000000000000000 ) ) ;
#181 = APPROVAL_STATUS ( 'not_yet_approved' ) ;
#182 = DATE_AND_TIME ( #199, #142 ) ;
#183 = FACE_OUTER_BOUND ( 'NONE', #19, .T. ) ;
#184 = AXIS2_PLACEMENT_3D ( 'NONE', #247, #70, #146 ) ;
#185 = COORDINATED_UNIVERSAL_TIME_OFFSET ( 1, 0, .AHEAD. ) ;
#186 = CIRCLE ( 'NONE', #77, 11.00000000000000000 ) ;
#187 = AXIS2_PLACEMENT_3D ( 'NONE', #82, #238, #80 ) ;
#188 = PERSON_AND_ORGANIZATION_ROLE ( 'design_supplier' ) ;
#189 = LOCAL_TIME ( 19, 9, 21.00000000000000000, #244 ) ;
#190 = EDGE_CURVE ( 'NONE', #255, #41, #140, .T. ) ;
#191 = ORIENTED_EDGE ( 'NONE', *, *, #239, .F. ) ;
#192 = CARTESIAN_POINT ( 'NONE',  ( -7.750000000000000000, 0.000000000000000000, 167.0000000000000000 ) ) ;
#193 = APPROVAL ( #181, 'NEURÈENÝ' ) ;
#194 = VERTEX_POINT ( 'NONE', #134 ) ;
#195 = DIRECTION ( 'NONE',  ( 0.000000000000000000, 0.000000000000000000, 1.000000000000000000 ) ) ;
#196 = LINE ( 'NONE', #60, #34 ) ;
#197 = DIRECTION ( 'NONE',  ( -0.000000000000000000, -0.000000000000000000, -1.000000000000000000 ) ) ;
#198 = CC_DESIGN_DATE_AND_TIME_ASSIGNMENT ( #246, #129, ( #139 ) ) ;
#199 = CALENDAR_DATE ( 2022, 7, 7 ) ;
#200 = FACE_BOUND ( 'NONE', #62, .T. ) ;
#201 = APPROVAL_ROLE ( '' ) ;
#202 = CARTESIAN_POINT ( 'NONE',  ( 0.000000000000000000, 0.000000000000000000, 167.0000000000000000 ) ) ;
#203 = ADVANCED_FACE ( 'NONE', ( #234 ), #136, .T. ) ;
#204 = MANIFOLD_SOLID_BREP ( 'Pøidat vysunutím3', #5 ) ;
#205 = PRODUCT_DEFINITION_SHAPE ( 'NONE', 'NONE',  #139 ) ;
#206 = EDGE_CURVE ( 'NONE', #120, #55, #222, .T. ) ;
#207 = CARTESIAN_POINT ( 'NONE',  ( 0.000000000000000000, 0.000000000000000000, 7.000000000000000000 ) ) ;
#208 = CIRCLE ( 'NONE', #123, 11.00000000000000000 ) ;
#209 = ORIENTED_EDGE ( 'NONE', *, *, #131, .F. ) ;
#210 = CARTESIAN_POINT ( 'NONE',  ( -11.00000000000000000, 0.000000000000000000, 7.000000000000000000 ) ) ;
#211 = ORIENTED_EDGE ( 'NONE', *, *, #13, .T. ) ;
#212 = DIRECTION ( 'NONE',  ( -1.000000000000000000, 0.000000000000000000, 0.000000000000000000 ) ) ;
#213 = EDGE_LOOP ( 'NONE', ( #23, #98, #240, #237 ) ) ;
#214 = DIRECTION ( 'NONE',  ( 0.000000000000000000, 0.000000000000000000, 1.000000000000000000 ) ) ;
#215 = LOCAL_TIME ( 19, 9, 21.00000000000000000, #6 ) ;
#216 = ADVANCED_FACE ( 'NONE', ( #183 ), #145, .T. ) ;
#217 = LOCAL_TIME ( 19, 9, 21.00000000000000000, #45 ) ;
#218 = AXIS2_PLACEMENT_3D ( 'NONE', #83, #1, #159 ) ;
#219 = CC_DESIGN_PERSON_AND_ORGANIZATION_ASSIGNMENT ( #30, #109, ( #230 ) ) ;
#220 = DIRECTION ( 'NONE',  ( -0.000000000000000000, -0.000000000000000000, -1.000000000000000000 ) ) ;
#221 = EDGE_CURVE ( 'NONE', #255, #235, #208, .T. ) ;
#222 = CIRCLE ( 'NONE', #229, 7.750000000000000000 ) ;
#223 = DIRECTION ( 'NONE',  ( 1.000000000000000000, 0.000000000000000000, 0.000000000000000000 ) ) ;
#224 = CALENDAR_DATE ( 2022, 7, 7 ) ;
#225 = FACE_OUTER_BOUND ( 'NONE', #154, .T. ) ;
#226 = ADVANCED_FACE ( 'NONE', ( #128 ), #130, .T. ) ;
#227 = CALENDAR_DATE ( 2022, 7, 7 ) ;
#228 = DESIGN_CONTEXT ( 'detailed design', #133, 'design' ) ;
#229 = AXIS2_PLACEMENT_3D ( 'NONE', #106, #180, #223 ) ;
#230 = PRODUCT_DEFINITION_FORMATION_WITH_SPECIFIED_SOURCE ( 'LIBOVOLNÝ', '', #166, .NOT_KNOWN. ) ;
#231 = CIRCLE ( 'NONE', #150, 7.750000000000000000 ) ;
#232 = DIRECTION ( 'NONE',  ( -1.000000000000000000, 0.000000000000000000, 0.000000000000000000 ) ) ;
#233 = ORIENTED_EDGE ( 'NONE', *, *, #64, .F. ) ;
#234 = FACE_OUTER_BOUND ( 'NONE', #213, .T. ) ;
#235 = VERTEX_POINT ( 'NONE', #63 ) ;
#236 = CYLINDRICAL_SURFACE ( 'NONE', #94, 7.750000000000000000 ) ;
#237 = ORIENTED_EDGE ( 'NONE', *, *, #27, .F. ) ;
#238 = DIRECTION ( 'NONE',  ( 0.000000000000000000, 0.000000000000000000, 1.000000000000000000 ) ) ;
#239 = EDGE_CURVE ( 'NONE', #41, #194, #173, .T. ) ;
#240 = ORIENTED_EDGE ( 'NONE', *, *, #239, .T. ) ;
#241 = DIRECTION ( 'NONE',  ( 1.000000000000000000, 0.000000000000000000, 0.000000000000000000 ) ) ;
#242 = ORIENTED_EDGE ( 'NONE', *, *, #96, .F. ) ;
#243 = DIRECTION ( 'NONE',  ( 1.000000000000000000, 0.000000000000000000, -0.000000000000000000 ) ) ;
#244 = COORDINATED_UNIVERSAL_TIME_OFFSET ( 1, 0, .AHEAD. ) ;
#245 = CARTESIAN_POINT ( 'NONE',  ( 0.000000000000000000, 0.000000000000000000, 0.000000000000000000 ) ) ;
#246 = DATE_AND_TIME ( #227, #251 ) ;
#247 = CARTESIAN_POINT ( 'NONE',  ( 0.000000000000000000, 0.000000000000000000, 0.000000000000000000 ) ) ;
#248 = ADVANCED_FACE ( 'NONE', ( #200, #225 ), #46, .T. ) ;
#249 = PERSON_AND_ORGANIZATION_ROLE ( 'creator' ) ;
#250 = ORGANIZATION ( 'NEURÈENÝ', 'NEURÈENÝ', '' ) ;
#251 = LOCAL_TIME ( 19, 9, 21.00000000000000000, #185 ) ;
#252 = DIRECTION ( 'NONE',  ( 1.000000000000000000, 0.000000000000000000, 0.000000000000000000 ) ) ;
#253 = DIRECTION ( 'NONE',  ( 1.000000000000000000, 0.000000000000000000, 0.000000000000000000 ) ) ;
#254 = AXIS2_PLACEMENT_3D ( 'NONE', #20, #220, #125 ) ;
#255 = VERTEX_POINT ( 'NONE', #29 ) ;
ENDSEC;
END-ISO-10303-21;
