ISO-10303-21;
HEADER;
FILE_DESCRIPTION (( 'STEP AP203' ),
    '1' );
FILE_NAME ('3c6c.STEP',
    '2023-02-13T08:45:56',
    ( '' ),
    ( '' ),
    'SwSTEP 2.0',
    'SolidWorks 2019',
    '' );
FILE_SCHEMA (( 'CONFIG_CONTROL_DESIGN' ));
ENDSEC;

DATA;
#1 = DIRECTION ( 'NONE',  ( 1.000000000000000000, 0.000000000000000000, -0.000000000000000000 ) ) ;
#2 = APPROVAL ( #64, 'NEURÈENÝ' ) ;
#3 = CALENDAR_DATE ( 2023, 13, 2 ) ;
#4 = COORDINATED_UNIVERSAL_TIME_OFFSET ( 1, 0, .AHEAD. ) ;
#5 = AXIS2_PLACEMENT_3D ( 'NONE', #221, #154, #14 ) ;
#6 = FACE_BOUND ( 'NONE', #68, .T. ) ;
#7 = EDGE_CURVE ( 'NONE', #51, #200, #73, .T. ) ;
#8 = EDGE_CURVE ( 'NONE', #211, #193, #162, .T. ) ;
#9 = ORIENTED_EDGE ( 'NONE', *, *, #35, .T. ) ;
#10 = DESIGN_CONTEXT ( 'detailed design', #119, 'design' ) ;
#11 = COORDINATED_UNIVERSAL_TIME_OFFSET ( 1, 0, .AHEAD. ) ;
#12 = ORIENTED_EDGE ( 'NONE', *, *, #8, .T. ) ;
#13 = EDGE_CURVE ( 'NONE', #176, #215, #112, .T. ) ;
#14 = DIRECTION ( 'NONE',  ( -1.000000000000000000, 0.000000000000000000, 0.000000000000000000 ) ) ;
#15 = AXIS2_PLACEMENT_3D ( 'NONE', #107, #188, #70 ) ;
#16 = LOCAL_TIME ( 9, 45, 56.00000000000000000, #209 ) ;
#17 = LINE ( 'NONE', #80, #33 ) ;
#18 = DIRECTION ( 'NONE',  ( -0.000000000000000000, -0.000000000000000000, -1.000000000000000000 ) ) ;
#19 = CARTESIAN_POINT ( 'NONE',  ( 12.00000000000000178, 1.469576158976824144E-15, 7.000000000000000000 ) ) ;
#20 = ORIENTED_EDGE ( 'NONE', *, *, #54, .T. ) ;
#21 = ORGANIZATION ( 'NEURÈENÝ', 'NEURÈENÝ', '' ) ;
#22 = FACE_OUTER_BOUND ( 'NONE', #189, .T. ) ;
#23 = DATE_AND_TIME ( #67, #88 ) ;
#24 = CARTESIAN_POINT ( 'NONE',  ( 0.000000000000000000, 0.000000000000000000, 0.000000000000000000 ) ) ;
#25 = PERSON_AND_ORGANIZATION_ROLE ( 'design_supplier' ) ;
#26 = CARTESIAN_POINT ( 'NONE',  ( -9.000000000000001776, 0.000000000000000000, 200.0000000000000000 ) ) ;
#27 = EDGE_CURVE ( 'NONE', #215, #176, #129, .T. ) ;
#28 = VERTEX_POINT ( 'NONE', #26 ) ;
#29 = DIRECTION ( 'NONE',  ( 0.000000000000000000, 0.000000000000000000, 1.000000000000000000 ) ) ;
#30 = AXIS2_PLACEMENT_3D ( 'NONE', #60, #134, #197 ) ;
#31 = DIRECTION ( 'NONE',  ( 1.000000000000000000, 0.000000000000000000, -0.000000000000000000 ) ) ;
#32 = CYLINDRICAL_SURFACE ( 'NONE', #208, 9.000000000000001776 ) ;
#33 = VECTOR ( 'NONE', #234, 1000.000000000000000 ) ;
#34 = APPROVAL_PERSON_ORGANIZATION ( #242, #168, #93 ) ;
#35 = EDGE_CURVE ( 'NONE', #28, #51, #191, .T. ) ;
#36 = DIRECTION ( 'NONE',  ( 0.000000000000000000, 0.000000000000000000, 1.000000000000000000 ) ) ;
#37 = LINE ( 'NONE', #232, #166 ) ;
#38 = AXIS2_PLACEMENT_3D ( 'NONE', #238, #217, #115 ) ;
#39 = DATE_TIME_ROLE ( 'creation_date' ) ;
#40 = APPROVAL_ROLE ( '' ) ;
#41 = APPROVAL_DATE_TIME ( #63, #58 ) ;
#42 = DIRECTION ( 'NONE',  ( -0.000000000000000000, -0.000000000000000000, -1.000000000000000000 ) ) ;
#43 = ADVANCED_FACE ( 'NONE', ( #6, #90 ), #102, .T. ) ;
#44 = ADVANCED_FACE ( 'NONE', ( #252 ), #97, .F. ) ;
#45 = CLOSED_SHELL ( 'NONE', ( #241, #95, #113, #43, #44, #105, #62 ) ) ;
#46 = LOCAL_TIME ( 9, 45, 56.00000000000000000, #206 ) ;
#47 = EDGE_LOOP ( 'NONE', ( #133, #79, #248, #228 ) ) ;
#48 = CC_DESIGN_DATE_AND_TIME_ASSIGNMENT ( #222, #39, ( #150 ) ) ;
#49 = PRODUCT_DEFINITION_SHAPE ( 'NONE', 'NONE',  #150 ) ;
#50 = ORIENTED_EDGE ( 'NONE', *, *, #13, .T. ) ;
#51 = VERTEX_POINT ( 'NONE', #120 ) ;
#52 = APPROVAL_PERSON_ORGANIZATION ( #128, #2, #243 ) ;
#53 = DIRECTION ( 'NONE',  ( -0.000000000000000000, -0.000000000000000000, -1.000000000000000000 ) ) ;
#54 = EDGE_CURVE ( 'NONE', #51, #28, #159, .T. ) ;
#55 = DIRECTION ( 'NONE',  ( 1.000000000000000000, 0.000000000000000000, -0.000000000000000000 ) ) ;
#56 = VECTOR ( 'NONE', #53, 1000.000000000000000 ) ;
#57 = DIRECTION ( 'NONE',  ( 1.000000000000000000, 0.000000000000000000, 0.000000000000000000 ) ) ;
#58 = APPROVAL ( #239, 'NEURÈENÝ' ) ;
#59 = MANIFOLD_SOLID_BREP ( 'Pøidat vysunutím3', #45 ) ;
#60 = CARTESIAN_POINT ( 'NONE',  ( 0.000000000000000000, 0.000000000000000000, 0.000000000000000000 ) ) ;
#61 = APPLICATION_PROTOCOL_DEFINITION ( 'international standard', 'config_control_design', 1994, #141 ) ;
#62 = ADVANCED_FACE ( 'NONE', ( #22 ), #220, .T. ) ;
#63 = DATE_AND_TIME ( #86, #46 ) ;
#64 = APPROVAL_STATUS ( 'not_yet_approved' ) ;
#65 = CC_DESIGN_DATE_AND_TIME_ASSIGNMENT ( #23, #160, ( #192 ) ) ;
#66 = COORDINATED_UNIVERSAL_TIME_OFFSET ( 1, 0, .AHEAD. ) ;
#67 = CALENDAR_DATE ( 2023, 13, 2 ) ;
#68 = EDGE_LOOP ( 'NONE', ( #149, #72 ) ) ;
#69 = CIRCLE ( 'NONE', #179, 9.000000000000001776 ) ;
#70 = DIRECTION ( 'NONE',  ( 1.000000000000000000, 0.000000000000000000, 0.000000000000000000 ) ) ;
#71 = APPROVAL_PERSON_ORGANIZATION ( #244, #58, #40 ) ;
#72 = ORIENTED_EDGE ( 'NONE', *, *, #116, .F. ) ;
#73 = LINE ( 'NONE', #216, #106 ) ;
#74 = DIRECTION ( 'NONE',  ( 0.000000000000000000, 0.000000000000000000, 1.000000000000000000 ) ) ;
#75 = EDGE_LOOP ( 'NONE', ( #251, #231, #171, #12 ) ) ;
#76 = EDGE_CURVE ( 'NONE', #215, #211, #17, .T. ) ;
#77 = FACE_OUTER_BOUND ( 'NONE', #75, .T. ) ;
#78 = DIRECTION ( 'NONE',  ( 0.000000000000000000, 0.000000000000000000, 1.000000000000000000 ) ) ;
#79 = ORIENTED_EDGE ( 'NONE', *, *, #35, .F. ) ;
#80 = CARTESIAN_POINT ( 'NONE',  ( -12.00000000000000178, 0.000000000000000000, 7.000000000000000000 ) ) ;
#81 = AXIS2_PLACEMENT_3D ( 'NONE', #196, #78, #55 ) ;
#82 = CC_DESIGN_APPROVAL ( #168, ( #192 ) ) ;
#83 = LINE ( 'NONE', #173, #56 ) ;
#84 = AXIS2_PLACEMENT_3D ( 'NONE', #136, #235, #1 ) ;
#85 = CC_DESIGN_SECURITY_CLASSIFICATION ( #192, ( #195 ) ) ;
#86 = CALENDAR_DATE ( 2023, 13, 2 ) ;
#87 = AXIS2_PLACEMENT_3D ( 'NONE', #219, #18, #99 ) ;
#88 = LOCAL_TIME ( 9, 45, 56.00000000000000000, #4 ) ;
#89 = EDGE_CURVE ( 'NONE', #193, #211, #249, .T. ) ;
#90 = FACE_OUTER_BOUND ( 'NONE', #164, .T. ) ;
#91 = DIRECTION ( 'NONE',  ( 1.000000000000000000, 0.000000000000000000, 0.000000000000000000 ) ) ;
#92 =( GEOMETRIC_REPRESENTATION_CONTEXT ( 3 ) GLOBAL_UNCERTAINTY_ASSIGNED_CONTEXT ( ( #111 ) ) GLOBAL_UNIT_ASSIGNED_CONTEXT ( ( #124, #224, #184 ) ) REPRESENTATION_CONTEXT ( 'NONE', 'WORKASPACE' ) );
#93 = APPROVAL_ROLE ( '' ) ;
#94 = DIRECTION ( 'NONE',  ( -0.000000000000000000, -0.000000000000000000, -1.000000000000000000 ) ) ;
#95 = ADVANCED_FACE ( 'NONE', ( #152 ), #218, .T. ) ;
#96 = DIRECTION ( 'NONE',  ( 0.000000000000000000, 0.000000000000000000, 1.000000000000000000 ) ) ;
#97 = PLANE ( 'NONE',  #81 ) ;
#98 = EDGE_LOOP ( 'NONE', ( #236, #213, #247, #210 ) ) ;
#99 = DIRECTION ( 'NONE',  ( -1.000000000000000000, 0.000000000000000000, 0.000000000000000000 ) ) ;
#100 = DIRECTION ( 'NONE',  ( 1.000000000000000000, 0.000000000000000000, 0.000000000000000000 ) ) ;
#101 = AXIS2_PLACEMENT_3D ( 'NONE', #237, #180, #31 ) ;
#102 = PLANE ( 'NONE',  #84 ) ;
#103 = DIRECTION ( 'NONE',  ( -1.000000000000000000, 0.000000000000000000, 0.000000000000000000 ) ) ;
#104 = APPROVAL_DATE_TIME ( #142, #2 ) ;
#105 = ADVANCED_FACE ( 'NONE', ( #177 ), #157, .T. ) ;
#106 = VECTOR ( 'NONE', #94, 1000.000000000000000 ) ;
#107 = CARTESIAN_POINT ( 'NONE',  ( 0.000000000000000000, 0.000000000000000000, 200.0000000000000000 ) ) ;
#108 = PERSON ( 'NEURÈENÝ', 'NEURÈENÝ', 'NEURÈENÝ', ('NEURÈENÝ'), ('NEURÈENÝ'), ('NEURÈENÝ') ) ;
#109 = CARTESIAN_POINT ( 'NONE',  ( 0.000000000000000000, 0.000000000000000000, 7.000000000000000000 ) ) ;
#110 = CC_DESIGN_PERSON_AND_ORGANIZATION_ASSIGNMENT ( #185, #161, ( #192 ) ) ;
#111 = UNCERTAINTY_MEASURE_WITH_UNIT (LENGTH_MEASURE( 1.000000000000000082E-05 ), #124, 'distance_accuracy_value', 'NONE');
#112 = CIRCLE ( 'NONE', #240, 12.00000000000000178 ) ;
#113 = ADVANCED_FACE ( 'NONE', ( #77 ), #253, .T. ) ;
#114 = DIRECTION ( 'NONE',  ( 1.000000000000000000, 0.000000000000000000, 0.000000000000000000 ) ) ;
#115 = DIRECTION ( 'NONE',  ( -1.000000000000000000, 0.000000000000000000, 0.000000000000000000 ) ) ;
#116 = EDGE_CURVE ( 'NONE', #200, #214, #69, .T. ) ;
#117 = CARTESIAN_POINT ( 'NONE',  ( 0.000000000000000000, 0.000000000000000000, 7.000000000000000000 ) ) ;
#118 = CARTESIAN_POINT ( 'NONE',  ( 0.000000000000000000, 0.000000000000000000, 200.0000000000000000 ) ) ;
#119 = APPLICATION_CONTEXT ( 'configuration controlled 3d designs of mechanical parts and assemblies' ) ;
#120 = CARTESIAN_POINT ( 'NONE',  ( 9.000000000000001776, 1.102182119232617911E-15, 200.0000000000000000 ) ) ;
#121 = ORIENTED_EDGE ( 'NONE', *, *, #7, .T. ) ;
#122 = CARTESIAN_POINT ( 'NONE',  ( 9.000000000000001776, 1.102182119232617911E-15, 7.000000000000000000 ) ) ;
#123 = AXIS2_PLACEMENT_3D ( 'NONE', #146, #29, #229 ) ;
#124 =( LENGTH_UNIT ( ) NAMED_UNIT ( * ) SI_UNIT ( .MILLI., .METRE. ) );
#125 = AXIS2_PLACEMENT_3D ( 'NONE', #24, #137, #186 ) ;
#126 = CC_DESIGN_APPROVAL ( #58, ( #195 ) ) ;
#127 = PERSON_AND_ORGANIZATION ( #108, #21 ) ;
#128 = PERSON_AND_ORGANIZATION ( #108, #21 ) ;
#129 = CIRCLE ( 'NONE', #254, 12.00000000000000178 ) ;
#130 = EDGE_LOOP ( 'NONE', ( #233, #121, #138, #167 ) ) ;
#131 = PRODUCT ( '3c6c', '3c6c', '', ( #204 ) ) ;
#132 = FACE_OUTER_BOUND ( 'NONE', #130, .T. ) ;
#133 = ORIENTED_EDGE ( 'NONE', *, *, #7, .F. ) ;
#134 = DIRECTION ( 'NONE',  ( 0.000000000000000000, 0.000000000000000000, 1.000000000000000000 ) ) ;
#135 = AXIS2_PLACEMENT_3D ( 'NONE', #194, #36, #199 ) ;
#136 = CARTESIAN_POINT ( 'NONE',  ( 0.000000000000000000, 0.000000000000000000, 7.000000000000000000 ) ) ;
#137 = DIRECTION ( 'NONE',  ( 0.000000000000000000, 0.000000000000000000, 1.000000000000000000 ) ) ;
#138 = ORIENTED_EDGE ( 'NONE', *, *, #116, .T. ) ;
#139 = PERSON_AND_ORGANIZATION ( #108, #21 ) ;
#140 = SECURITY_CLASSIFICATION_LEVEL ( 'unclassified' ) ;
#141 = APPLICATION_CONTEXT ( 'configuration controlled 3d designs of mechanical parts and assemblies' ) ;
#142 = DATE_AND_TIME ( #3, #202 ) ;
#143 = APPLICATION_PROTOCOL_DEFINITION ( 'international standard', 'config_control_design', 1994, #119 ) ;
#144 = SHAPE_DEFINITION_REPRESENTATION ( #49, #187 ) ;
#145 = AXIS2_PLACEMENT_3D ( 'NONE', #118, #201, #100 ) ;
#146 = CARTESIAN_POINT ( 'NONE',  ( 0.000000000000000000, 0.000000000000000000, 0.000000000000000000 ) ) ;
#147 = EDGE_LOOP ( 'NONE', ( #246, #198 ) ) ;
#148 = EDGE_CURVE ( 'NONE', #176, #193, #37, .T. ) ;
#149 = ORIENTED_EDGE ( 'NONE', *, *, #155, .F. ) ;
#150 = PRODUCT_DEFINITION ( 'NEZNÁMÝ', '', #195, #10 ) ;
#151 = CARTESIAN_POINT ( 'NONE',  ( 12.00000000000000178, 1.469576158976824144E-15, 0.000000000000000000 ) ) ;
#152 = FACE_OUTER_BOUND ( 'NONE', #98, .T. ) ;
#153 = CC_DESIGN_PERSON_AND_ORGANIZATION_ASSIGNMENT ( #127, #25, ( #195 ) ) ;
#154 = DIRECTION ( 'NONE',  ( -0.000000000000000000, -0.000000000000000000, -1.000000000000000000 ) ) ;
#155 = EDGE_CURVE ( 'NONE', #214, #200, #172, .T. ) ;
#156 = CARTESIAN_POINT ( 'NONE',  ( -12.00000000000000178, 0.000000000000000000, 0.000000000000000000 ) ) ;
#157 = CYLINDRICAL_SURFACE ( 'NONE', #38, 9.000000000000001776 ) ;
#158 = CALENDAR_DATE ( 2023, 13, 2 ) ;
#159 = CIRCLE ( 'NONE', #145, 9.000000000000001776 ) ;
#160 = DATE_TIME_ROLE ( 'classification_date' ) ;
#161 = PERSON_AND_ORGANIZATION_ROLE ( 'classification_officer' ) ;
#162 = CIRCLE ( 'NONE', #123, 12.00000000000000178 ) ;
#163 = DATE_AND_TIME ( #169, #174 ) ;
#164 = EDGE_LOOP ( 'NONE', ( #181, #50 ) ) ;
#165 = DIRECTION ( 'NONE',  ( 0.000000000000000000, 0.000000000000000000, 1.000000000000000000 ) ) ;
#166 = VECTOR ( 'NONE', #250, 1000.000000000000000 ) ;
#167 = ORIENTED_EDGE ( 'NONE', *, *, #230, .F. ) ;
#168 = APPROVAL ( #212, 'NEURÈENÝ' ) ;
#169 = CALENDAR_DATE ( 2023, 13, 2 ) ;
#170 = CARTESIAN_POINT ( 'NONE',  ( 0.000000000000000000, 0.000000000000000000, 7.000000000000000000 ) ) ;
#171 = ORIENTED_EDGE ( 'NONE', *, *, #76, .T. ) ;
#172 = CIRCLE ( 'NONE', #135, 9.000000000000001776 ) ;
#173 = CARTESIAN_POINT ( 'NONE',  ( -9.000000000000001776, 0.000000000000000000, 200.0000000000000000 ) ) ;
#174 = LOCAL_TIME ( 9, 45, 56.00000000000000000, #11 ) ;
#175 = CARTESIAN_POINT ( 'NONE',  ( 0.000000000000000000, 0.000000000000000000, 200.0000000000000000 ) ) ;
#176 = VERTEX_POINT ( 'NONE', #19 ) ;
#177 = FACE_OUTER_BOUND ( 'NONE', #47, .T. ) ;
#178 = CARTESIAN_POINT ( 'NONE',  ( -9.000000000000001776, 0.000000000000000000, 7.000000000000000000 ) ) ;
#179 = AXIS2_PLACEMENT_3D ( 'NONE', #117, #96, #57 ) ;
#180 = DIRECTION ( 'NONE',  ( 0.000000000000000000, 0.000000000000000000, 1.000000000000000000 ) ) ;
#181 = ORIENTED_EDGE ( 'NONE', *, *, #27, .T. ) ;
#182 = PERSON_AND_ORGANIZATION ( #108, #21 ) ;
#183 = PERSON_AND_ORGANIZATION_ROLE ( 'creator' ) ;
#184 =( NAMED_UNIT ( * ) SI_UNIT ( $, .STERADIAN. ) SOLID_ANGLE_UNIT ( ) );
#185 = PERSON_AND_ORGANIZATION ( #108, #21 ) ;
#186 = DIRECTION ( 'NONE',  ( 1.000000000000000000, 0.000000000000000000, 0.000000000000000000 ) ) ;
#187 = ADVANCED_BREP_SHAPE_REPRESENTATION ( '3c6c', ( #59, #125 ), #92 ) ;
#188 = DIRECTION ( 'NONE',  ( 0.000000000000000000, 0.000000000000000000, 1.000000000000000000 ) ) ;
#189 = EDGE_LOOP ( 'NONE', ( #9, #20 ) ) ;
#190 = APPROVAL_DATE_TIME ( #163, #168 ) ;
#191 = CIRCLE ( 'NONE', #15, 9.000000000000001776 ) ;
#192 = SECURITY_CLASSIFICATION ( '', '', #140 ) ;
#193 = VERTEX_POINT ( 'NONE', #151 ) ;
#194 = CARTESIAN_POINT ( 'NONE',  ( 0.000000000000000000, 0.000000000000000000, 7.000000000000000000 ) ) ;
#195 = PRODUCT_DEFINITION_FORMATION_WITH_SPECIFIED_SOURCE ( 'LIBOVOLNÝ', '', #131, .NOT_KNOWN. ) ;
#196 = CARTESIAN_POINT ( 'NONE',  ( 0.000000000000000000, 0.000000000000000000, 0.000000000000000000 ) ) ;
#197 = DIRECTION ( 'NONE',  ( 1.000000000000000000, 0.000000000000000000, 0.000000000000000000 ) ) ;
#198 = ORIENTED_EDGE ( 'NONE', *, *, #89, .F. ) ;
#199 = DIRECTION ( 'NONE',  ( 1.000000000000000000, 0.000000000000000000, 0.000000000000000000 ) ) ;
#200 = VERTEX_POINT ( 'NONE', #122 ) ;
#201 = DIRECTION ( 'NONE',  ( 0.000000000000000000, 0.000000000000000000, 1.000000000000000000 ) ) ;
#202 = LOCAL_TIME ( 9, 45, 56.00000000000000000, #66 ) ;
#203 = CC_DESIGN_APPROVAL ( #2, ( #150 ) ) ;
#204 = MECHANICAL_CONTEXT ( 'NONE', #141, 'mechanical' ) ;
#205 = CC_DESIGN_PERSON_AND_ORGANIZATION_ASSIGNMENT ( #182, #227, ( #131 ) ) ;
#206 = COORDINATED_UNIVERSAL_TIME_OFFSET ( 1, 0, .AHEAD. ) ;
#207 = CC_DESIGN_PERSON_AND_ORGANIZATION_ASSIGNMENT ( #139, #223, ( #195 ) ) ;
#208 = AXIS2_PLACEMENT_3D ( 'NONE', #175, #42, #103 ) ;
#209 = COORDINATED_UNIVERSAL_TIME_OFFSET ( 1, 0, .AHEAD. ) ;
#210 = ORIENTED_EDGE ( 'NONE', *, *, #76, .F. ) ;
#211 = VERTEX_POINT ( 'NONE', #156 ) ;
#212 = APPROVAL_STATUS ( 'not_yet_approved' ) ;
#213 = ORIENTED_EDGE ( 'NONE', *, *, #148, .T. ) ;
#214 = VERTEX_POINT ( 'NONE', #178 ) ;
#215 = VERTEX_POINT ( 'NONE', #255 ) ;
#216 = CARTESIAN_POINT ( 'NONE',  ( 9.000000000000001776, 1.102182119232617911E-15, 200.0000000000000000 ) ) ;
#217 = DIRECTION ( 'NONE',  ( -0.000000000000000000, -0.000000000000000000, -1.000000000000000000 ) ) ;
#218 = CYLINDRICAL_SURFACE ( 'NONE', #87, 12.00000000000000178 ) ;
#219 = CARTESIAN_POINT ( 'NONE',  ( 0.000000000000000000, 0.000000000000000000, 7.000000000000000000 ) ) ;
#220 = PLANE ( 'NONE',  #101 ) ;
#221 = CARTESIAN_POINT ( 'NONE',  ( 0.000000000000000000, 0.000000000000000000, 7.000000000000000000 ) ) ;
#222 = DATE_AND_TIME ( #158, #16 ) ;
#223 = PERSON_AND_ORGANIZATION_ROLE ( 'creator' ) ;
#224 =( NAMED_UNIT ( * ) PLANE_ANGLE_UNIT ( ) SI_UNIT ( $, .RADIAN. ) );
#225 = PERSON_AND_ORGANIZATION ( #108, #21 ) ;
#226 = PRODUCT_RELATED_PRODUCT_CATEGORY ( 'detail', '', ( #131 ) ) ;
#227 = PERSON_AND_ORGANIZATION_ROLE ( 'design_owner' ) ;
#228 = ORIENTED_EDGE ( 'NONE', *, *, #155, .T. ) ;
#229 = DIRECTION ( 'NONE',  ( 1.000000000000000000, 0.000000000000000000, 0.000000000000000000 ) ) ;
#230 = EDGE_CURVE ( 'NONE', #28, #214, #83, .T. ) ;
#231 = ORIENTED_EDGE ( 'NONE', *, *, #27, .F. ) ;
#232 = CARTESIAN_POINT ( 'NONE',  ( 12.00000000000000178, 1.469576158976824144E-15, 7.000000000000000000 ) ) ;
#233 = ORIENTED_EDGE ( 'NONE', *, *, #54, .F. ) ;
#234 = DIRECTION ( 'NONE',  ( -0.000000000000000000, -0.000000000000000000, -1.000000000000000000 ) ) ;
#235 = DIRECTION ( 'NONE',  ( 0.000000000000000000, 0.000000000000000000, 1.000000000000000000 ) ) ;
#236 = ORIENTED_EDGE ( 'NONE', *, *, #13, .F. ) ;
#237 = CARTESIAN_POINT ( 'NONE',  ( 0.000000000000000000, 0.000000000000000000, 200.0000000000000000 ) ) ;
#238 = CARTESIAN_POINT ( 'NONE',  ( 0.000000000000000000, 0.000000000000000000, 200.0000000000000000 ) ) ;
#239 = APPROVAL_STATUS ( 'not_yet_approved' ) ;
#240 = AXIS2_PLACEMENT_3D ( 'NONE', #109, #165, #91 ) ;
#241 = ADVANCED_FACE ( 'NONE', ( #132 ), #32, .T. ) ;
#242 = PERSON_AND_ORGANIZATION ( #108, #21 ) ;
#243 = APPROVAL_ROLE ( '' ) ;
#244 = PERSON_AND_ORGANIZATION ( #108, #21 ) ;
#245 = CC_DESIGN_PERSON_AND_ORGANIZATION_ASSIGNMENT ( #225, #183, ( #150 ) ) ;
#246 = ORIENTED_EDGE ( 'NONE', *, *, #8, .F. ) ;
#247 = ORIENTED_EDGE ( 'NONE', *, *, #89, .T. ) ;
#248 = ORIENTED_EDGE ( 'NONE', *, *, #230, .T. ) ;
#249 = CIRCLE ( 'NONE', #30, 12.00000000000000178 ) ;
#250 = DIRECTION ( 'NONE',  ( -0.000000000000000000, -0.000000000000000000, -1.000000000000000000 ) ) ;
#251 = ORIENTED_EDGE ( 'NONE', *, *, #148, .F. ) ;
#252 = FACE_OUTER_BOUND ( 'NONE', #147, .T. ) ;
#253 = CYLINDRICAL_SURFACE ( 'NONE', #5, 12.00000000000000178 ) ;
#254 = AXIS2_PLACEMENT_3D ( 'NONE', #170, #74, #114 ) ;
#255 = CARTESIAN_POINT ( 'NONE',  ( -12.00000000000000178, 0.000000000000000000, 7.000000000000000000 ) ) ;
ENDSEC;
END-ISO-10303-21;
