ISO-10303-21;
HEADER;
FILE_DESCRIPTION (( 'STEP AP203' ),
    '1' );
FILE_NAME ('51da.STEP',
    '2023-02-13T11:36:34',
    ( '' ),
    ( '' ),
    'SwSTEP 2.0',
    'SolidWorks 2019',
    '' );
FILE_SCHEMA (( 'CONFIG_CONTROL_DESIGN' ));
ENDSEC;

DATA;
#1 = CALENDAR_DATE ( 2023, 13, 2 ) ;
#2 = VERTEX_POINT ( 'NONE', #59 ) ;
#3 = EDGE_CURVE ( 'NONE', #254, #252, #186, .T. ) ;
#4 = CIRCLE ( 'NONE', #247, 6.500000000000000888 ) ;
#5 = DIRECTION ( 'NONE',  ( -0.000000000000000000, -0.000000000000000000, -1.000000000000000000 ) ) ;
#6 = ORIENTED_EDGE ( 'NONE', *, *, #162, .T. ) ;
#7 = DIRECTION ( 'NONE',  ( -0.000000000000000000, -0.000000000000000000, -1.000000000000000000 ) ) ;
#8 = APPLICATION_CONTEXT ( 'configuration controlled 3d designs of mechanical parts and assemblies' ) ;
#9 = APPROVAL_PERSON_ORGANIZATION ( #246, #86, #169 ) ;
#10 = CARTESIAN_POINT ( 'NONE',  ( 11.00000000000000000, 1.347111479062088405E-15, 7.000000000000000000 ) ) ;
#11 = APPROVAL ( #225, 'NEURÈENÝ' ) ;
#12 = DATE_AND_TIME ( #107, #222 ) ;
#13 = PLANE ( 'NONE',  #100 ) ;
#14 = DIRECTION ( 'NONE',  ( -0.000000000000000000, -0.000000000000000000, -1.000000000000000000 ) ) ;
#15 = CARTESIAN_POINT ( 'NONE',  ( -11.00000000000000000, 0.000000000000000000, 7.000000000000000000 ) ) ;
#16 = ORIENTED_EDGE ( 'NONE', *, *, #105, .T. ) ;
#17 = DIRECTION ( 'NONE',  ( 0.000000000000000000, 0.000000000000000000, 1.000000000000000000 ) ) ;
#18 = PLANE ( 'NONE',  #85 ) ;
#19 = ORIENTED_EDGE ( 'NONE', *, *, #156, .T. ) ;
#20 = PRODUCT_RELATED_PRODUCT_CATEGORY ( 'detail', '', ( #245 ) ) ;
#21 = ORIENTED_EDGE ( 'NONE', *, *, #89, .F. ) ;
#22 = ORIENTED_EDGE ( 'NONE', *, *, #185, .F. ) ;
#23 = AXIS2_PLACEMENT_3D ( 'NONE', #74, #58, #154 ) ;
#24 = CARTESIAN_POINT ( 'NONE',  ( 0.000000000000000000, 0.000000000000000000, 7.000000000000000000 ) ) ;
#25 = APPROVAL_DATE_TIME ( #45, #11 ) ;
#26 = PERSON_AND_ORGANIZATION_ROLE ( 'creator' ) ;
#27 = ORIENTED_EDGE ( 'NONE', *, *, #185, .T. ) ;
#28 = CIRCLE ( 'NONE', #233, 11.00000000000000000 ) ;
#29 = PERSON_AND_ORGANIZATION_ROLE ( 'classification_officer' ) ;
#30 = CC_DESIGN_DATE_AND_TIME_ASSIGNMENT ( #166, #242, ( #50 ) ) ;
#31 = PERSON_AND_ORGANIZATION_ROLE ( 'creator' ) ;
#32 = FACE_OUTER_BOUND ( 'NONE', #48, .T. ) ;
#33 = DIRECTION ( 'NONE',  ( 1.000000000000000000, 0.000000000000000000, 0.000000000000000000 ) ) ;
#34 = CC_DESIGN_APPROVAL ( #86, ( #123 ) ) ;
#35 = FACE_OUTER_BOUND ( 'NONE', #228, .T. ) ;
#36 = ORIENTED_EDGE ( 'NONE', *, *, #105, .F. ) ;
#37 = FACE_OUTER_BOUND ( 'NONE', #220, .T. ) ;
#38 = DIRECTION ( 'NONE',  ( -1.000000000000000000, 0.000000000000000000, 0.000000000000000000 ) ) ;
#39 = ADVANCED_FACE ( 'NONE', ( #37 ), #18, .F. ) ;
#40 = ORIENTED_EDGE ( 'NONE', *, *, #93, .F. ) ;
#41 = CARTESIAN_POINT ( 'NONE',  ( 0.000000000000000000, 0.000000000000000000, 7.000000000000000000 ) ) ;
#42 = AXIS2_PLACEMENT_3D ( 'NONE', #188, #110, #126 ) ;
#43 = ORIENTED_EDGE ( 'NONE', *, *, #135, .F. ) ;
#44 = AXIS2_PLACEMENT_3D ( 'NONE', #114, #232, #133 ) ;
#45 = DATE_AND_TIME ( #207, #208 ) ;
#46 = CARTESIAN_POINT ( 'NONE',  ( 0.000000000000000000, 0.000000000000000000, 0.000000000000000000 ) ) ;
#47 = PERSON_AND_ORGANIZATION ( #142, #184 ) ;
#48 = EDGE_LOOP ( 'NONE', ( #22, #43, #181, #255 ) ) ;
#49 = ADVANCED_BREP_SHAPE_REPRESENTATION ( '51da', ( #67, #97 ), #103 ) ;
#50 = PRODUCT_DEFINITION ( 'NEZNÁMÝ', '', #123, #202 ) ;
#51 = VERTEX_POINT ( 'NONE', #197 ) ;
#52 = DATE_AND_TIME ( #76, #234 ) ;
#53 = PERSON_AND_ORGANIZATION_ROLE ( 'design_supplier' ) ;
#54 = FACE_OUTER_BOUND ( 'NONE', #148, .T. ) ;
#55 = AXIS2_PLACEMENT_3D ( 'NONE', #24, #146, #198 ) ;
#56 = DATE_TIME_ROLE ( 'classification_date' ) ;
#57 = DIRECTION ( 'NONE',  ( -1.000000000000000000, 0.000000000000000000, 0.000000000000000000 ) ) ;
#58 = DIRECTION ( 'NONE',  ( -0.000000000000000000, -0.000000000000000000, -1.000000000000000000 ) ) ;
#59 = CARTESIAN_POINT ( 'NONE',  ( -6.500000000000000888, 0.000000000000000000, 7.000000000000000000 ) ) ;
#60 = CIRCLE ( 'NONE', #203, 11.00000000000000000 ) ;
#61 = DIRECTION ( 'NONE',  ( 0.000000000000000000, 0.000000000000000000, 1.000000000000000000 ) ) ;
#62 = EDGE_LOOP ( 'NONE', ( #205, #27, #155, #173 ) ) ;
#63 = EDGE_LOOP ( 'NONE', ( #139, #36 ) ) ;
#64 = APPROVAL_PERSON_ORGANIZATION ( #106, #11, #240 ) ;
#65 = CC_DESIGN_PERSON_AND_ORGANIZATION_ASSIGNMENT ( #47, #140, ( #245 ) ) ;
#66 = DIRECTION ( 'NONE',  ( 0.000000000000000000, 0.000000000000000000, 1.000000000000000000 ) ) ;
#67 = MANIFOLD_SOLID_BREP ( 'Pøidat vysunutím3', #216 ) ;
#68 = CC_DESIGN_PERSON_AND_ORGANIZATION_ASSIGNMENT ( #213, #53, ( #123 ) ) ;
#69 = DIRECTION ( 'NONE',  ( 1.000000000000000000, 0.000000000000000000, 0.000000000000000000 ) ) ;
#70 = FACE_OUTER_BOUND ( 'NONE', #235, .T. ) ;
#71 = COORDINATED_UNIVERSAL_TIME_OFFSET ( 1, 0, .AHEAD. ) ;
#72 = CYLINDRICAL_SURFACE ( 'NONE', #23, 11.00000000000000000 ) ;
#73 = ORIENTED_EDGE ( 'NONE', *, *, #3, .F. ) ;
#74 = CARTESIAN_POINT ( 'NONE',  ( 0.000000000000000000, 0.000000000000000000, 7.000000000000000000 ) ) ;
#75 = CARTESIAN_POINT ( 'NONE',  ( 0.000000000000000000, 0.000000000000000000, 7.000000000000000000 ) ) ;
#76 = CALENDAR_DATE ( 2023, 13, 2 ) ;
#77 = CARTESIAN_POINT ( 'NONE',  ( 11.00000000000000000, 1.347111479062088405E-15, 7.000000000000000000 ) ) ;
#78 = LINE ( 'NONE', #96, #131 ) ;
#79 = ORIENTED_EDGE ( 'NONE', *, *, #204, .F. ) ;
#80 = DIRECTION ( 'NONE',  ( -0.000000000000000000, -0.000000000000000000, -1.000000000000000000 ) ) ;
#81 = DIRECTION ( 'NONE',  ( 0.000000000000000000, 0.000000000000000000, 1.000000000000000000 ) ) ;
#82 = CARTESIAN_POINT ( 'NONE',  ( 6.500000000000000888, 7.960204194457796463E-16, 125.0000000000000000 ) ) ;
#83 = DIRECTION ( 'NONE',  ( -0.000000000000000000, -0.000000000000000000, -1.000000000000000000 ) ) ;
#84 =( NAMED_UNIT ( * ) PLANE_ANGLE_UNIT ( ) SI_UNIT ( $, .RADIAN. ) );
#85 = AXIS2_PLACEMENT_3D ( 'NONE', #193, #81, #158 ) ;
#86 = APPROVAL ( #229, 'NEURÈENÝ' ) ;
#87 = CIRCLE ( 'NONE', #141, 6.500000000000000888 ) ;
#88 = PERSON_AND_ORGANIZATION ( #142, #184 ) ;
#89 = EDGE_CURVE ( 'NONE', #125, #153, #98, .T. ) ;
#90 = DIRECTION ( 'NONE',  ( 0.000000000000000000, 0.000000000000000000, 1.000000000000000000 ) ) ;
#91 = CC_DESIGN_APPROVAL ( #11, ( #50 ) ) ;
#92 = APPLICATION_CONTEXT ( 'configuration controlled 3d designs of mechanical parts and assemblies' ) ;
#93 = EDGE_CURVE ( 'NONE', #252, #254, #60, .T. ) ;
#94 = ORIENTED_EDGE ( 'NONE', *, *, #124, .T. ) ;
#95 = APPROVAL_ROLE ( '' ) ;
#96 = CARTESIAN_POINT ( 'NONE',  ( -11.00000000000000000, 0.000000000000000000, 7.000000000000000000 ) ) ;
#97 = AXIS2_PLACEMENT_3D ( 'NONE', #209, #66, #69 ) ;
#98 = LINE ( 'NONE', #82, #172 ) ;
#99 = DIRECTION ( 'NONE',  ( 0.000000000000000000, 0.000000000000000000, 1.000000000000000000 ) ) ;
#100 = AXIS2_PLACEMENT_3D ( 'NONE', #147, #90, #152 ) ;
#101 = APPLICATION_PROTOCOL_DEFINITION ( 'international standard', 'config_control_design', 1994, #8 ) ;
#102 = PERSON_AND_ORGANIZATION ( #142, #184 ) ;
#103 =( GEOMETRIC_REPRESENTATION_CONTEXT ( 3 ) GLOBAL_UNCERTAINTY_ASSIGNED_CONTEXT ( ( #183 ) ) GLOBAL_UNIT_ASSIGNED_CONTEXT ( ( #200, #84, #180 ) ) REPRESENTATION_CONTEXT ( 'NONE', 'WORKASPACE' ) );
#104 = COORDINATED_UNIVERSAL_TIME_OFFSET ( 1, 0, .AHEAD. ) ;
#105 = EDGE_CURVE ( 'NONE', #153, #2, #117, .T. ) ;
#106 = PERSON_AND_ORGANIZATION ( #142, #184 ) ;
#107 = CALENDAR_DATE ( 2023, 13, 2 ) ;
#108 = APPROVAL_DATE_TIME ( #52, #109 ) ;
#109 = APPROVAL ( #250, 'NEURÈENÝ' ) ;
#110 = DIRECTION ( 'NONE',  ( 0.000000000000000000, 0.000000000000000000, 1.000000000000000000 ) ) ;
#111 = CARTESIAN_POINT ( 'NONE',  ( 6.500000000000000888, 7.960204194457796463E-16, 125.0000000000000000 ) ) ;
#112 = CIRCLE ( 'NONE', #44, 6.500000000000000888 ) ;
#113 = CARTESIAN_POINT ( 'NONE',  ( 0.000000000000000000, 0.000000000000000000, 7.000000000000000000 ) ) ;
#114 = CARTESIAN_POINT ( 'NONE',  ( 0.000000000000000000, 0.000000000000000000, 125.0000000000000000 ) ) ;
#115 = DIRECTION ( 'NONE',  ( 0.000000000000000000, 0.000000000000000000, 1.000000000000000000 ) ) ;
#116 = EDGE_CURVE ( 'NONE', #2, #153, #4, .T. ) ;
#117 = CIRCLE ( 'NONE', #55, 6.500000000000000888 ) ;
#118 = CC_DESIGN_SECURITY_CLASSIFICATION ( #179, ( #123 ) ) ;
#119 = ORIENTED_EDGE ( 'NONE', *, *, #124, .F. ) ;
#120 = ADVANCED_FACE ( 'NONE', ( #177 ), #253, .T. ) ;
#121 = AXIS2_PLACEMENT_3D ( 'NONE', #230, #7, #57 ) ;
#122 = ORIENTED_EDGE ( 'NONE', *, *, #89, .T. ) ;
#123 = PRODUCT_DEFINITION_FORMATION_WITH_SPECIFIED_SOURCE ( 'LIBOVOLNÝ', '', #245, .NOT_KNOWN. ) ;
#124 = EDGE_CURVE ( 'NONE', #51, #125, #87, .T. ) ;
#125 = VERTEX_POINT ( 'NONE', #111 ) ;
#126 = DIRECTION ( 'NONE',  ( 1.000000000000000000, 0.000000000000000000, -0.000000000000000000 ) ) ;
#127 = AXIS2_PLACEMENT_3D ( 'NONE', #75, #83, #160 ) ;
#128 = PERSON_AND_ORGANIZATION ( #142, #184 ) ;
#129 = CC_DESIGN_APPROVAL ( #109, ( #179 ) ) ;
#130 = DATE_AND_TIME ( #211, #161 ) ;
#131 = VECTOR ( 'NONE', #80, 1000.000000000000000 ) ;
#132 = CARTESIAN_POINT ( 'NONE',  ( 0.000000000000000000, 0.000000000000000000, 0.000000000000000000 ) ) ;
#133 = DIRECTION ( 'NONE',  ( 1.000000000000000000, 0.000000000000000000, 0.000000000000000000 ) ) ;
#134 = DIRECTION ( 'NONE',  ( 1.000000000000000000, 0.000000000000000000, 0.000000000000000000 ) ) ;
#135 = EDGE_CURVE ( 'NONE', #137, #201, #28, .T. ) ;
#136 = DIRECTION ( 'NONE',  ( 0.000000000000000000, 0.000000000000000000, 1.000000000000000000 ) ) ;
#137 = VERTEX_POINT ( 'NONE', #15 ) ;
#138 = ADVANCED_FACE ( 'NONE', ( #251 ), #176, .T. ) ;
#139 = ORIENTED_EDGE ( 'NONE', *, *, #116, .F. ) ;
#140 = PERSON_AND_ORGANIZATION_ROLE ( 'design_owner' ) ;
#141 = AXIS2_PLACEMENT_3D ( 'NONE', #236, #215, #33 ) ;
#142 = PERSON ( 'NEURÈENÝ', 'NEURÈENÝ', 'NEURÈENÝ', ('NEURÈENÝ'), ('NEURÈENÝ'), ('NEURÈENÝ') ) ;
#143 = EDGE_CURVE ( 'NONE', #137, #254, #78, .T. ) ;
#144 = COORDINATED_UNIVERSAL_TIME_OFFSET ( 1, 0, .AHEAD. ) ;
#145 = AXIS2_PLACEMENT_3D ( 'NONE', #41, #61, #134 ) ;
#146 = DIRECTION ( 'NONE',  ( 0.000000000000000000, 0.000000000000000000, 1.000000000000000000 ) ) ;
#147 = CARTESIAN_POINT ( 'NONE',  ( 0.000000000000000000, 0.000000000000000000, 7.000000000000000000 ) ) ;
#148 = EDGE_LOOP ( 'NONE', ( #94, #6 ) ) ;
#149 = SHAPE_DEFINITION_REPRESENTATION ( #190, #49 ) ;
#150 = AXIS2_PLACEMENT_3D ( 'NONE', #157, #14, #38 ) ;
#151 = COORDINATED_UNIVERSAL_TIME_OFFSET ( 1, 0, .AHEAD. ) ;
#152 = DIRECTION ( 'NONE',  ( 1.000000000000000000, 0.000000000000000000, -0.000000000000000000 ) ) ;
#153 = VERTEX_POINT ( 'NONE', #175 ) ;
#154 = DIRECTION ( 'NONE',  ( -1.000000000000000000, 0.000000000000000000, 0.000000000000000000 ) ) ;
#155 = ORIENTED_EDGE ( 'NONE', *, *, #93, .T. ) ;
#156 = EDGE_CURVE ( 'NONE', #201, #137, #196, .T. ) ;
#157 = CARTESIAN_POINT ( 'NONE',  ( 0.000000000000000000, 0.000000000000000000, 125.0000000000000000 ) ) ;
#158 = DIRECTION ( 'NONE',  ( 1.000000000000000000, 0.000000000000000000, -0.000000000000000000 ) ) ;
#159 = CC_DESIGN_PERSON_AND_ORGANIZATION_ASSIGNMENT ( #174, #29, ( #179 ) ) ;
#160 = DIRECTION ( 'NONE',  ( -1.000000000000000000, 0.000000000000000000, 0.000000000000000000 ) ) ;
#161 = LOCAL_TIME ( 12, 36, 34.00000000000000000, #210 ) ;
#162 = EDGE_CURVE ( 'NONE', #125, #51, #112, .T. ) ;
#163 = MECHANICAL_CONTEXT ( 'NONE', #8, 'mechanical' ) ;
#164 = ORIENTED_EDGE ( 'NONE', *, *, #116, .T. ) ;
#165 = DIRECTION ( 'NONE',  ( -0.000000000000000000, -0.000000000000000000, -1.000000000000000000 ) ) ;
#166 = DATE_AND_TIME ( #1, #237 ) ;
#167 = APPROVAL_DATE_TIME ( #130, #86 ) ;
#168 = FACE_BOUND ( 'NONE', #63, .T. ) ;
#169 = APPROVAL_ROLE ( '' ) ;
#170 = CARTESIAN_POINT ( 'NONE',  ( 11.00000000000000000, 1.347111479062088405E-15, 0.000000000000000000 ) ) ;
#171 = ORIENTED_EDGE ( 'NONE', *, *, #162, .F. ) ;
#172 = VECTOR ( 'NONE', #165, 1000.000000000000000 ) ;
#173 = ORIENTED_EDGE ( 'NONE', *, *, #143, .F. ) ;
#174 = PERSON_AND_ORGANIZATION ( #142, #184 ) ;
#175 = CARTESIAN_POINT ( 'NONE',  ( 6.500000000000000888, 7.960204194457796463E-16, 7.000000000000000000 ) ) ;
#176 = CYLINDRICAL_SURFACE ( 'NONE', #150, 6.500000000000000888 ) ;
#177 = FACE_OUTER_BOUND ( 'NONE', #62, .T. ) ;
#178 = CC_DESIGN_PERSON_AND_ORGANIZATION_ASSIGNMENT ( #102, #26, ( #50 ) ) ;
#179 = SECURITY_CLASSIFICATION ( '', '', #192 ) ;
#180 =( NAMED_UNIT ( * ) SI_UNIT ( $, .STERADIAN. ) SOLID_ANGLE_UNIT ( ) );
#181 = ORIENTED_EDGE ( 'NONE', *, *, #143, .T. ) ;
#182 = DIRECTION ( 'NONE',  ( 1.000000000000000000, 0.000000000000000000, 0.000000000000000000 ) ) ;
#183 = UNCERTAINTY_MEASURE_WITH_UNIT (LENGTH_MEASURE( 1.000000000000000082E-05 ), #200, 'distance_accuracy_value', 'NONE');
#184 = ORGANIZATION ( 'NEURÈENÝ', 'NEURÈENÝ', '' ) ;
#185 = EDGE_CURVE ( 'NONE', #201, #252, #218, .T. ) ;
#186 = CIRCLE ( 'NONE', #223, 11.00000000000000000 ) ;
#187 = CARTESIAN_POINT ( 'NONE',  ( -6.500000000000000888, 0.000000000000000000, 125.0000000000000000 ) ) ;
#188 = CARTESIAN_POINT ( 'NONE',  ( 0.000000000000000000, 0.000000000000000000, 125.0000000000000000 ) ) ;
#189 = LINE ( 'NONE', #187, #212 ) ;
#190 = PRODUCT_DEFINITION_SHAPE ( 'NONE', 'NONE',  #50 ) ;
#191 = DIRECTION ( 'NONE',  ( 1.000000000000000000, 0.000000000000000000, 0.000000000000000000 ) ) ;
#192 = SECURITY_CLASSIFICATION_LEVEL ( 'unclassified' ) ;
#193 = CARTESIAN_POINT ( 'NONE',  ( 0.000000000000000000, 0.000000000000000000, 0.000000000000000000 ) ) ;
#194 = DIRECTION ( 'NONE',  ( 1.000000000000000000, 0.000000000000000000, 0.000000000000000000 ) ) ;
#195 = ORIENTED_EDGE ( 'NONE', *, *, #135, .T. ) ;
#196 = CIRCLE ( 'NONE', #145, 11.00000000000000000 ) ;
#197 = CARTESIAN_POINT ( 'NONE',  ( -6.500000000000000888, 0.000000000000000000, 125.0000000000000000 ) ) ;
#198 = DIRECTION ( 'NONE',  ( 1.000000000000000000, 0.000000000000000000, 0.000000000000000000 ) ) ;
#199 = ADVANCED_FACE ( 'NONE', ( #32 ), #72, .T. ) ;
#200 =( LENGTH_UNIT ( ) NAMED_UNIT ( * ) SI_UNIT ( .MILLI., .METRE. ) );
#201 = VERTEX_POINT ( 'NONE', #77 ) ;
#202 = DESIGN_CONTEXT ( 'detailed design', #92, 'design' ) ;
#203 = AXIS2_PLACEMENT_3D ( 'NONE', #46, #99, #182 ) ;
#204 = EDGE_CURVE ( 'NONE', #51, #2, #189, .T. ) ;
#205 = ORIENTED_EDGE ( 'NONE', *, *, #156, .F. ) ;
#206 = ADVANCED_FACE ( 'NONE', ( #168, #70 ), #13, .T. ) ;
#207 = CALENDAR_DATE ( 2023, 13, 2 ) ;
#208 = LOCAL_TIME ( 12, 36, 34.00000000000000000, #144 ) ;
#209 = CARTESIAN_POINT ( 'NONE',  ( 0.000000000000000000, 0.000000000000000000, 0.000000000000000000 ) ) ;
#210 = COORDINATED_UNIVERSAL_TIME_OFFSET ( 1, 0, .AHEAD. ) ;
#211 = CALENDAR_DATE ( 2023, 13, 2 ) ;
#212 = VECTOR ( 'NONE', #5, 1000.000000000000000 ) ;
#213 = PERSON_AND_ORGANIZATION ( #142, #184 ) ;
#214 = PLANE ( 'NONE',  #42 ) ;
#215 = DIRECTION ( 'NONE',  ( 0.000000000000000000, 0.000000000000000000, 1.000000000000000000 ) ) ;
#216 = CLOSED_SHELL ( 'NONE', ( #138, #120, #199, #206, #39, #238, #227 ) ) ;
#217 = DIRECTION ( 'NONE',  ( 1.000000000000000000, 0.000000000000000000, 0.000000000000000000 ) ) ;
#218 = LINE ( 'NONE', #10, #221 ) ;
#219 = CARTESIAN_POINT ( 'NONE',  ( 0.000000000000000000, 0.000000000000000000, 7.000000000000000000 ) ) ;
#220 = EDGE_LOOP ( 'NONE', ( #73, #40 ) ) ;
#221 = VECTOR ( 'NONE', #248, 1000.000000000000000 ) ;
#222 = LOCAL_TIME ( 12, 36, 34.00000000000000000, #151 ) ;
#223 = AXIS2_PLACEMENT_3D ( 'NONE', #132, #136, #217 ) ;
#224 = APPLICATION_PROTOCOL_DEFINITION ( 'international standard', 'config_control_design', 1994, #92 ) ;
#225 = APPROVAL_STATUS ( 'not_yet_approved' ) ;
#226 = ORIENTED_EDGE ( 'NONE', *, *, #204, .T. ) ;
#227 = ADVANCED_FACE ( 'NONE', ( #54 ), #214, .T. ) ;
#228 = EDGE_LOOP ( 'NONE', ( #21, #119, #226, #164 ) ) ;
#229 = APPROVAL_STATUS ( 'not_yet_approved' ) ;
#230 = CARTESIAN_POINT ( 'NONE',  ( 0.000000000000000000, 0.000000000000000000, 125.0000000000000000 ) ) ;
#231 = CYLINDRICAL_SURFACE ( 'NONE', #121, 6.500000000000000888 ) ;
#232 = DIRECTION ( 'NONE',  ( 0.000000000000000000, 0.000000000000000000, 1.000000000000000000 ) ) ;
#233 = AXIS2_PLACEMENT_3D ( 'NONE', #113, #17, #194 ) ;
#234 = LOCAL_TIME ( 12, 36, 34.00000000000000000, #71 ) ;
#235 = EDGE_LOOP ( 'NONE', ( #195, #19 ) ) ;
#236 = CARTESIAN_POINT ( 'NONE',  ( 0.000000000000000000, 0.000000000000000000, 125.0000000000000000 ) ) ;
#237 = LOCAL_TIME ( 12, 36, 34.00000000000000000, #104 ) ;
#238 = ADVANCED_FACE ( 'NONE', ( #35 ), #231, .T. ) ;
#239 = APPROVAL_PERSON_ORGANIZATION ( #88, #109, #95 ) ;
#240 = APPROVAL_ROLE ( '' ) ;
#241 = EDGE_LOOP ( 'NONE', ( #171, #122, #16, #79 ) ) ;
#242 = DATE_TIME_ROLE ( 'creation_date' ) ;
#243 = CC_DESIGN_DATE_AND_TIME_ASSIGNMENT ( #12, #56, ( #179 ) ) ;
#244 = CARTESIAN_POINT ( 'NONE',  ( -11.00000000000000000, 0.000000000000000000, 0.000000000000000000 ) ) ;
#245 = PRODUCT ( '51da', '51da', '', ( #163 ) ) ;
#246 = PERSON_AND_ORGANIZATION ( #142, #184 ) ;
#247 = AXIS2_PLACEMENT_3D ( 'NONE', #219, #115, #191 ) ;
#248 = DIRECTION ( 'NONE',  ( -0.000000000000000000, -0.000000000000000000, -1.000000000000000000 ) ) ;
#249 = CC_DESIGN_PERSON_AND_ORGANIZATION_ASSIGNMENT ( #128, #31, ( #123 ) ) ;
#250 = APPROVAL_STATUS ( 'not_yet_approved' ) ;
#251 = FACE_OUTER_BOUND ( 'NONE', #241, .T. ) ;
#252 = VERTEX_POINT ( 'NONE', #170 ) ;
#253 = CYLINDRICAL_SURFACE ( 'NONE', #127, 11.00000000000000000 ) ;
#254 = VERTEX_POINT ( 'NONE', #244 ) ;
#255 = ORIENTED_EDGE ( 'NONE', *, *, #3, .T. ) ;
ENDSEC;
END-ISO-10303-21;
