ISO-10303-21;
HEADER;
FILE_DESCRIPTION (( 'STEP AP203' ),
    '1' );
FILE_NAME ('81b5.STEP',
    '2022-07-07T17:15:55',
    ( '' ),
    ( '' ),
    'SwSTEP 2.0',
    'SolidWorks 2019',
    '' );
FILE_SCHEMA (( 'CONFIG_CONTROL_DESIGN' ));
ENDSEC;

DATA;
#1 =( NAMED_UNIT ( * ) PLANE_ANGLE_UNIT ( ) SI_UNIT ( $, .RADIAN. ) );
#2 = CARTESIAN_POINT ( 'NONE',  ( 0.000000000000000000, 0.000000000000000000, 132.0000000000000000 ) ) ;
#3 = CARTESIAN_POINT ( 'NONE',  ( 0.000000000000000000, 0.000000000000000000, 7.000000000000000000 ) ) ;
#4 = CARTESIAN_POINT ( 'NONE',  ( -11.00000000000000000, 0.000000000000000000, 7.000000000000000000 ) ) ;
#5 = CARTESIAN_POINT ( 'NONE',  ( 0.000000000000000000, 0.000000000000000000, 7.000000000000000000 ) ) ;
#6 = ORIENTED_EDGE ( 'NONE', *, *, #123, .F. ) ;
#7 = ORIENTED_EDGE ( 'NONE', *, *, #123, .T. ) ;
#8 = ADVANCED_FACE ( 'NONE', ( #14 ), #22, .T. ) ;
#9 = VECTOR ( 'NONE', #216, 1000.000000000000000 ) ;
#10 = AXIS2_PLACEMENT_3D ( 'NONE', #41, #141, #136 ) ;
#11 = ORIENTED_EDGE ( 'NONE', *, *, #218, .F. ) ;
#12 = SHAPE_DEFINITION_REPRESENTATION ( #241, #206 ) ;
#13 = PERSON_AND_ORGANIZATION_ROLE ( 'creator' ) ;
#14 = FACE_OUTER_BOUND ( 'NONE', #127, .T. ) ;
#15 = CARTESIAN_POINT ( 'NONE',  ( 11.00000000000000000, 1.347111479062088405E-15, 7.000000000000000000 ) ) ;
#16 = PERSON_AND_ORGANIZATION ( #89, #87 ) ;
#17 = CARTESIAN_POINT ( 'NONE',  ( -11.00000000000000000, 0.000000000000000000, 7.000000000000000000 ) ) ;
#18 = COORDINATED_UNIVERSAL_TIME_OFFSET ( 1, 0, .AHEAD. ) ;
#19 = DIRECTION ( 'NONE',  ( 1.000000000000000000, 0.000000000000000000, 0.000000000000000000 ) ) ;
#20 = PERSON_AND_ORGANIZATION ( #89, #87 ) ;
#21 = ADVANCED_FACE ( 'NONE', ( #250 ), #181, .T. ) ;
#22 = CYLINDRICAL_SURFACE ( 'NONE', #180, 6.750000000000000000 ) ;
#23 = CIRCLE ( 'NONE', #247, 6.750000000000000000 ) ;
#24 = LOCAL_TIME ( 19, 15, 55.00000000000000000, #193 ) ;
#25 = EDGE_CURVE ( 'NONE', #164, #72, #203, .T. ) ;
#26 = CARTESIAN_POINT ( 'NONE',  ( -6.750000000000000000, 0.000000000000000000, 132.0000000000000000 ) ) ;
#27 = DIRECTION ( 'NONE',  ( 1.000000000000000000, 0.000000000000000000, 0.000000000000000000 ) ) ;
#28 = AXIS2_PLACEMENT_3D ( 'NONE', #5, #124, #84 ) ;
#29 = DESIGN_CONTEXT ( 'detailed design', #46, 'design' ) ;
#30 = EDGE_CURVE ( 'NONE', #40, #102, #68, .T. ) ;
#31 = APPROVAL_STATUS ( 'not_yet_approved' ) ;
#32 = EDGE_CURVE ( 'NONE', #102, #91, #23, .T. ) ;
#33 = DIRECTION ( 'NONE',  ( 1.000000000000000000, 0.000000000000000000, -0.000000000000000000 ) ) ;
#34 = DATE_AND_TIME ( #190, #70 ) ;
#35 = LINE ( 'NONE', #15, #9 ) ;
#36 = FACE_OUTER_BOUND ( 'NONE', #88, .T. ) ;
#37 = CIRCLE ( 'NONE', #243, 6.750000000000000000 ) ;
#38 = DATE_AND_TIME ( #100, #122 ) ;
#39 = CARTESIAN_POINT ( 'NONE',  ( 0.000000000000000000, 0.000000000000000000, 7.000000000000000000 ) ) ;
#40 = VERTEX_POINT ( 'NONE', #226 ) ;
#41 = CARTESIAN_POINT ( 'NONE',  ( 0.000000000000000000, 0.000000000000000000, 7.000000000000000000 ) ) ;
#42 = ORIENTED_EDGE ( 'NONE', *, *, #25, .F. ) ;
#43 = VECTOR ( 'NONE', #86, 1000.000000000000000 ) ;
#44 = CC_DESIGN_PERSON_AND_ORGANIZATION_ASSIGNMENT ( #157, #13, ( #132 ) ) ;
#45 = DIRECTION ( 'NONE',  ( -1.000000000000000000, 0.000000000000000000, 0.000000000000000000 ) ) ;
#46 = APPLICATION_CONTEXT ( 'configuration controlled 3d designs of mechanical parts and assemblies' ) ;
#47 = CARTESIAN_POINT ( 'NONE',  ( 6.750000000000000000, 8.266365894244634333E-16, 132.0000000000000000 ) ) ;
#48 = EDGE_CURVE ( 'NONE', #63, #91, #143, .T. ) ;
#49 = CC_DESIGN_APPROVAL ( #240, ( #132 ) ) ;
#50 = APPROVAL_PERSON_ORGANIZATION ( #235, #223, #195 ) ;
#51 = CARTESIAN_POINT ( 'NONE',  ( 0.000000000000000000, 0.000000000000000000, 132.0000000000000000 ) ) ;
#52 = PERSON_AND_ORGANIZATION_ROLE ( 'classification_officer' ) ;
#53 = VECTOR ( 'NONE', #85, 1000.000000000000000 ) ;
#54 = CC_DESIGN_SECURITY_CLASSIFICATION ( #167, ( #132 ) ) ;
#55 = DATE_AND_TIME ( #131, #147 ) ;
#56 = DIRECTION ( 'NONE',  ( 1.000000000000000000, 0.000000000000000000, -0.000000000000000000 ) ) ;
#57 = CALENDAR_DATE ( 2022, 7, 7 ) ;
#58 =( NAMED_UNIT ( * ) SI_UNIT ( $, .STERADIAN. ) SOLID_ANGLE_UNIT ( ) );
#59 = APPROVAL_STATUS ( 'not_yet_approved' ) ;
#60 = PRODUCT_RELATED_PRODUCT_CATEGORY ( 'detail', '', ( #129 ) ) ;
#61 = CARTESIAN_POINT ( 'NONE',  ( 0.000000000000000000, 0.000000000000000000, 0.000000000000000000 ) ) ;
#62 = PERSON_AND_ORGANIZATION ( #89, #87 ) ;
#63 = VERTEX_POINT ( 'NONE', #47 ) ;
#64 = CYLINDRICAL_SURFACE ( 'NONE', #10, 11.00000000000000000 ) ;
#65 = ORIENTED_EDGE ( 'NONE', *, *, #25, .T. ) ;
#66 = ORIENTED_EDGE ( 'NONE', *, *, #69, .T. ) ;
#67 = CIRCLE ( 'NONE', #231, 6.750000000000000000 ) ;
#68 = LINE ( 'NONE', #26, #43 ) ;
#69 = EDGE_CURVE ( 'NONE', #164, #148, #137, .T. ) ;
#70 = LOCAL_TIME ( 19, 15, 55.00000000000000000, #111 ) ;
#71 = APPROVAL_PERSON_ORGANIZATION ( #213, #107, #75 ) ;
#72 = VERTEX_POINT ( 'NONE', #163 ) ;
#73 = EDGE_CURVE ( 'NONE', #148, #164, #173, .T. ) ;
#74 = EDGE_CURVE ( 'NONE', #40, #63, #67, .T. ) ;
#75 = APPROVAL_ROLE ( '' ) ;
#76 = AXIS2_PLACEMENT_3D ( 'NONE', #135, #161, #116 ) ;
#77 = APPROVAL_STATUS ( 'not_yet_approved' ) ;
#78 = CALENDAR_DATE ( 2022, 7, 7 ) ;
#79 = CC_DESIGN_PERSON_AND_ORGANIZATION_ASSIGNMENT ( #16, #177, ( #211 ) ) ;
#80 = CARTESIAN_POINT ( 'NONE',  ( 11.00000000000000000, 1.347111479062088405E-15, 7.000000000000000000 ) ) ;
#81 = PERSON_AND_ORGANIZATION ( #89, #87 ) ;
#82 = CARTESIAN_POINT ( 'NONE',  ( 0.000000000000000000, 0.000000000000000000, 132.0000000000000000 ) ) ;
#83 = ORIENTED_EDGE ( 'NONE', *, *, #32, .T. ) ;
#84 = DIRECTION ( 'NONE',  ( 1.000000000000000000, 0.000000000000000000, 0.000000000000000000 ) ) ;
#85 = DIRECTION ( 'NONE',  ( -0.000000000000000000, -0.000000000000000000, -1.000000000000000000 ) ) ;
#86 = DIRECTION ( 'NONE',  ( -0.000000000000000000, -0.000000000000000000, -1.000000000000000000 ) ) ;
#87 = ORGANIZATION ( 'NEURÈENÝ', 'NEURÈENÝ', '' ) ;
#88 = EDGE_LOOP ( 'NONE', ( #66, #185 ) ) ;
#89 = PERSON ( 'NEURÈENÝ', 'NEURÈENÝ', 'NEURÈENÝ', ('NEURÈENÝ'), ('NEURÈENÝ'), ('NEURÈENÝ') ) ;
#90 = ORIENTED_EDGE ( 'NONE', *, *, #48, .F. ) ;
#91 = VERTEX_POINT ( 'NONE', #99 ) ;
#92 = ADVANCED_FACE ( 'NONE', ( #253, #36 ), #222, .T. ) ;
#93 = CC_DESIGN_PERSON_AND_ORGANIZATION_ASSIGNMENT ( #81, #155, ( #129 ) ) ;
#94 = DIRECTION ( 'NONE',  ( -0.000000000000000000, -0.000000000000000000, -1.000000000000000000 ) ) ;
#95 = CARTESIAN_POINT ( 'NONE',  ( 0.000000000000000000, 0.000000000000000000, 7.000000000000000000 ) ) ;
#96 = APPROVAL_DATE_TIME ( #34, #107 ) ;
#97 = ADVANCED_FACE ( 'NONE', ( #214 ), #154, .F. ) ;
#98 = DIRECTION ( 'NONE',  ( 0.000000000000000000, 0.000000000000000000, 1.000000000000000000 ) ) ;
#99 = CARTESIAN_POINT ( 'NONE',  ( 6.750000000000000000, 8.266365894244634333E-16, 7.000000000000000000 ) ) ;
#100 = CALENDAR_DATE ( 2022, 7, 7 ) ;
#101 =( LENGTH_UNIT ( ) NAMED_UNIT ( * ) SI_UNIT ( .MILLI., .METRE. ) );
#102 = VERTEX_POINT ( 'NONE', #112 ) ;
#103 = AXIS2_PLACEMENT_3D ( 'NONE', #61, #194, #219 ) ;
#104 = ORIENTED_EDGE ( 'NONE', *, *, #218, .T. ) ;
#105 = ORIENTED_EDGE ( 'NONE', *, *, #30, .F. ) ;
#106 = CARTESIAN_POINT ( 'NONE',  ( 6.750000000000000000, 8.266365894244634333E-16, 132.0000000000000000 ) ) ;
#107 = APPROVAL ( #31, 'NEURÈENÝ' ) ;
#108 = ORIENTED_EDGE ( 'NONE', *, *, #152, .T. ) ;
#109 = CIRCLE ( 'NONE', #103, 11.00000000000000000 ) ;
#110 = CC_DESIGN_APPROVAL ( #223, ( #211 ) ) ;
#111 = COORDINATED_UNIVERSAL_TIME_OFFSET ( 1, 0, .AHEAD. ) ;
#112 = CARTESIAN_POINT ( 'NONE',  ( -6.750000000000000000, 0.000000000000000000, 7.000000000000000000 ) ) ;
#113 = DATE_AND_TIME ( #57, #24 ) ;
#114 = DIRECTION ( 'NONE',  ( 1.000000000000000000, 0.000000000000000000, 0.000000000000000000 ) ) ;
#115 = APPLICATION_PROTOCOL_DEFINITION ( 'international standard', 'config_control_design', 1994, #150 ) ;
#116 = DIRECTION ( 'NONE',  ( 1.000000000000000000, 0.000000000000000000, -0.000000000000000000 ) ) ;
#117 = APPROVAL_DATE_TIME ( #38, #240 ) ;
#118 = CYLINDRICAL_SURFACE ( 'NONE', #138, 11.00000000000000000 ) ;
#119 = CC_DESIGN_DATE_AND_TIME_ASSIGNMENT ( #55, #215, ( #167 ) ) ;
#120 = FACE_OUTER_BOUND ( 'NONE', #168, .T. ) ;
#121 = AXIS2_PLACEMENT_3D ( 'NONE', #200, #232, #56 ) ;
#122 = LOCAL_TIME ( 19, 15, 55.00000000000000000, #140 ) ;
#123 = EDGE_CURVE ( 'NONE', #148, #244, #35, .T. ) ;
#124 = DIRECTION ( 'NONE',  ( 0.000000000000000000, 0.000000000000000000, 1.000000000000000000 ) ) ;
#125 = VECTOR ( 'NONE', #144, 1000.000000000000000 ) ;
#126 = EDGE_CURVE ( 'NONE', #244, #72, #210, .T. ) ;
#127 = EDGE_LOOP ( 'NONE', ( #90, #228, #146, #83 ) ) ;
#128 = EDGE_LOOP ( 'NONE', ( #191, #11 ) ) ;
#129 = PRODUCT ( '81b5', '81b5', '', ( #233 ) ) ;
#130 = CLOSED_SHELL ( 'NONE', ( #21, #170, #248, #92, #97, #8, #207 ) ) ;
#131 = CALENDAR_DATE ( 2022, 7, 7 ) ;
#132 = PRODUCT_DEFINITION_FORMATION_WITH_SPECIFIED_SOURCE ( 'LIBOVOLNÝ', '', #129, .NOT_KNOWN. ) ;
#133 = CARTESIAN_POINT ( 'NONE',  ( 0.000000000000000000, 0.000000000000000000, 132.0000000000000000 ) ) ;
#134 = APPLICATION_PROTOCOL_DEFINITION ( 'international standard', 'config_control_design', 1994, #46 ) ;
#135 = CARTESIAN_POINT ( 'NONE',  ( 0.000000000000000000, 0.000000000000000000, 7.000000000000000000 ) ) ;
#136 = DIRECTION ( 'NONE',  ( -1.000000000000000000, 0.000000000000000000, 0.000000000000000000 ) ) ;
#137 = CIRCLE ( 'NONE', #28, 11.00000000000000000 ) ;
#138 = AXIS2_PLACEMENT_3D ( 'NONE', #95, #234, #174 ) ;
#139 = CARTESIAN_POINT ( 'NONE',  ( 11.00000000000000000, 1.347111479062088405E-15, 0.000000000000000000 ) ) ;
#140 = COORDINATED_UNIVERSAL_TIME_OFFSET ( 1, 0, .AHEAD. ) ;
#141 = DIRECTION ( 'NONE',  ( -0.000000000000000000, -0.000000000000000000, -1.000000000000000000 ) ) ;
#142 = EDGE_LOOP ( 'NONE', ( #245, #7, #188, #42 ) ) ;
#143 = LINE ( 'NONE', #106, #125 ) ;
#144 = DIRECTION ( 'NONE',  ( -0.000000000000000000, -0.000000000000000000, -1.000000000000000000 ) ) ;
#145 = ORIENTED_EDGE ( 'NONE', *, *, #69, .F. ) ;
#146 = ORIENTED_EDGE ( 'NONE', *, *, #30, .T. ) ;
#147 = LOCAL_TIME ( 19, 15, 55.00000000000000000, #175 ) ;
#148 = VERTEX_POINT ( 'NONE', #80 ) ;
#149 = AXIS2_PLACEMENT_3D ( 'NONE', #2, #224, #45 ) ;
#150 = APPLICATION_CONTEXT ( 'configuration controlled 3d designs of mechanical parts and assemblies' ) ;
#151 = CIRCLE ( 'NONE', #186, 6.750000000000000000 ) ;
#152 = EDGE_CURVE ( 'NONE', #72, #244, #109, .T. ) ;
#153 = DATE_TIME_ROLE ( 'creation_date' ) ;
#154 = PLANE ( 'NONE',  #121 ) ;
#155 = PERSON_AND_ORGANIZATION_ROLE ( 'design_owner' ) ;
#156 = FACE_OUTER_BOUND ( 'NONE', #142, .T. ) ;
#157 = PERSON_AND_ORGANIZATION ( #89, #87 ) ;
#158 = CARTESIAN_POINT ( 'NONE',  ( 0.000000000000000000, 0.000000000000000000, 132.0000000000000000 ) ) ;
#159 = DATE_AND_TIME ( #78, #160 ) ;
#160 = LOCAL_TIME ( 19, 15, 55.00000000000000000, #18 ) ;
#161 = DIRECTION ( 'NONE',  ( 0.000000000000000000, 0.000000000000000000, 1.000000000000000000 ) ) ;
#162 = UNCERTAINTY_MEASURE_WITH_UNIT (LENGTH_MEASURE( 1.000000000000000082E-05 ), #101, 'distance_accuracy_value', 'NONE');
#163 = CARTESIAN_POINT ( 'NONE',  ( -11.00000000000000000, 0.000000000000000000, 0.000000000000000000 ) ) ;
#164 = VERTEX_POINT ( 'NONE', #17 ) ;
#165 = CC_DESIGN_PERSON_AND_ORGANIZATION_ASSIGNMENT ( #20, #179, ( #132 ) ) ;
#166 = ORIENTED_EDGE ( 'NONE', *, *, #189, .T. ) ;
#167 = SECURITY_CLASSIFICATION ( '', '', #254 ) ;
#168 = EDGE_LOOP ( 'NONE', ( #172, #166 ) ) ;
#169 = ORIENTED_EDGE ( 'NONE', *, *, #152, .F. ) ;
#170 = ADVANCED_FACE ( 'NONE', ( #156 ), #64, .T. ) ;
#171 = DIRECTION ( 'NONE',  ( 1.000000000000000000, 0.000000000000000000, 0.000000000000000000 ) ) ;
#172 = ORIENTED_EDGE ( 'NONE', *, *, #74, .T. ) ;
#173 = CIRCLE ( 'NONE', #202, 11.00000000000000000 ) ;
#174 = DIRECTION ( 'NONE',  ( -1.000000000000000000, 0.000000000000000000, 0.000000000000000000 ) ) ;
#175 = COORDINATED_UNIVERSAL_TIME_OFFSET ( 1, 0, .AHEAD. ) ;
#176 = DIRECTION ( 'NONE',  ( 1.000000000000000000, 0.000000000000000000, 0.000000000000000000 ) ) ;
#177 = PERSON_AND_ORGANIZATION_ROLE ( 'creator' ) ;
#178 = DIRECTION ( 'NONE',  ( 1.000000000000000000, 0.000000000000000000, 0.000000000000000000 ) ) ;
#179 = PERSON_AND_ORGANIZATION_ROLE ( 'design_supplier' ) ;
#180 = AXIS2_PLACEMENT_3D ( 'NONE', #82, #94, #184 ) ;
#181 = CYLINDRICAL_SURFACE ( 'NONE', #149, 6.750000000000000000 ) ;
#182 = AXIS2_PLACEMENT_3D ( 'NONE', #133, #98, #33 ) ;
#183 = AXIS2_PLACEMENT_3D ( 'NONE', #192, #237, #114 ) ;
#184 = DIRECTION ( 'NONE',  ( -1.000000000000000000, 0.000000000000000000, 0.000000000000000000 ) ) ;
#185 = ORIENTED_EDGE ( 'NONE', *, *, #73, .T. ) ;
#186 = AXIS2_PLACEMENT_3D ( 'NONE', #158, #236, #176 ) ;
#187 = DIRECTION ( 'NONE',  ( 1.000000000000000000, 0.000000000000000000, 0.000000000000000000 ) ) ;
#188 = ORIENTED_EDGE ( 'NONE', *, *, #126, .T. ) ;
#189 = EDGE_CURVE ( 'NONE', #63, #40, #151, .T. ) ;
#190 = CALENDAR_DATE ( 2022, 7, 7 ) ;
#191 = ORIENTED_EDGE ( 'NONE', *, *, #32, .F. ) ;
#192 = CARTESIAN_POINT ( 'NONE',  ( 0.000000000000000000, 0.000000000000000000, 0.000000000000000000 ) ) ;
#193 = COORDINATED_UNIVERSAL_TIME_OFFSET ( 1, 0, .AHEAD. ) ;
#194 = DIRECTION ( 'NONE',  ( 0.000000000000000000, 0.000000000000000000, 1.000000000000000000 ) ) ;
#195 = APPROVAL_ROLE ( '' ) ;
#196 = APPROVAL_PERSON_ORGANIZATION ( #62, #240, #251 ) ;
#197 = CC_DESIGN_PERSON_AND_ORGANIZATION_ASSIGNMENT ( #221, #52, ( #167 ) ) ;
#198 = PLANE ( 'NONE',  #182 ) ;
#199 = DIRECTION ( 'NONE',  ( 0.000000000000000000, 0.000000000000000000, 1.000000000000000000 ) ) ;
#200 = CARTESIAN_POINT ( 'NONE',  ( 0.000000000000000000, 0.000000000000000000, 0.000000000000000000 ) ) ;
#201 = EDGE_LOOP ( 'NONE', ( #209, #242, #104, #105 ) ) ;
#202 = AXIS2_PLACEMENT_3D ( 'NONE', #225, #246, #187 ) ;
#203 = LINE ( 'NONE', #4, #53 ) ;
#204 = DIRECTION ( 'NONE',  ( 0.000000000000000000, 0.000000000000000000, 1.000000000000000000 ) ) ;
#205 = DIRECTION ( 'NONE',  ( 0.000000000000000000, 0.000000000000000000, 1.000000000000000000 ) ) ;
#206 = ADVANCED_BREP_SHAPE_REPRESENTATION ( '81b5', ( #230, #227 ), #239 ) ;
#207 = ADVANCED_FACE ( 'NONE', ( #120 ), #198, .T. ) ;
#208 = ORIENTED_EDGE ( 'NONE', *, *, #126, .F. ) ;
#209 = ORIENTED_EDGE ( 'NONE', *, *, #189, .F. ) ;
#210 = CIRCLE ( 'NONE', #183, 11.00000000000000000 ) ;
#211 = PRODUCT_DEFINITION ( 'NEZNÁMÝ', '', #132, #29 ) ;
#212 = CC_DESIGN_APPROVAL ( #107, ( #167 ) ) ;
#213 = PERSON_AND_ORGANIZATION ( #89, #87 ) ;
#214 = FACE_OUTER_BOUND ( 'NONE', #238, .T. ) ;
#215 = DATE_TIME_ROLE ( 'classification_date' ) ;
#216 = DIRECTION ( 'NONE',  ( -0.000000000000000000, -0.000000000000000000, -1.000000000000000000 ) ) ;
#217 = CARTESIAN_POINT ( 'NONE',  ( 0.000000000000000000, 0.000000000000000000, 0.000000000000000000 ) ) ;
#218 = EDGE_CURVE ( 'NONE', #91, #102, #37, .T. ) ;
#219 = DIRECTION ( 'NONE',  ( 1.000000000000000000, 0.000000000000000000, 0.000000000000000000 ) ) ;
#220 = FACE_OUTER_BOUND ( 'NONE', #229, .T. ) ;
#221 = PERSON_AND_ORGANIZATION ( #89, #87 ) ;
#222 = PLANE ( 'NONE',  #76 ) ;
#223 = APPROVAL ( #59, 'NEURÈENÝ' ) ;
#224 = DIRECTION ( 'NONE',  ( -0.000000000000000000, -0.000000000000000000, -1.000000000000000000 ) ) ;
#225 = CARTESIAN_POINT ( 'NONE',  ( 0.000000000000000000, 0.000000000000000000, 7.000000000000000000 ) ) ;
#226 = CARTESIAN_POINT ( 'NONE',  ( -6.750000000000000000, 0.000000000000000000, 132.0000000000000000 ) ) ;
#227 = AXIS2_PLACEMENT_3D ( 'NONE', #217, #199, #171 ) ;
#228 = ORIENTED_EDGE ( 'NONE', *, *, #74, .F. ) ;
#229 = EDGE_LOOP ( 'NONE', ( #6, #145, #65, #108 ) ) ;
#230 = MANIFOLD_SOLID_BREP ( 'Pøidat vysunutím3', #130 ) ;
#231 = AXIS2_PLACEMENT_3D ( 'NONE', #51, #204, #178 ) ;
#232 = DIRECTION ( 'NONE',  ( 0.000000000000000000, 0.000000000000000000, 1.000000000000000000 ) ) ;
#233 = MECHANICAL_CONTEXT ( 'NONE', #150, 'mechanical' ) ;
#234 = DIRECTION ( 'NONE',  ( -0.000000000000000000, -0.000000000000000000, -1.000000000000000000 ) ) ;
#235 = PERSON_AND_ORGANIZATION ( #89, #87 ) ;
#236 = DIRECTION ( 'NONE',  ( 0.000000000000000000, 0.000000000000000000, 1.000000000000000000 ) ) ;
#237 = DIRECTION ( 'NONE',  ( 0.000000000000000000, 0.000000000000000000, 1.000000000000000000 ) ) ;
#238 = EDGE_LOOP ( 'NONE', ( #169, #208 ) ) ;
#239 =( GEOMETRIC_REPRESENTATION_CONTEXT ( 3 ) GLOBAL_UNCERTAINTY_ASSIGNED_CONTEXT ( ( #162 ) ) GLOBAL_UNIT_ASSIGNED_CONTEXT ( ( #101, #1, #58 ) ) REPRESENTATION_CONTEXT ( 'NONE', 'WORKASPACE' ) );
#240 = APPROVAL ( #77, 'NEURÈENÝ' ) ;
#241 = PRODUCT_DEFINITION_SHAPE ( 'NONE', 'NONE',  #211 ) ;
#242 = ORIENTED_EDGE ( 'NONE', *, *, #48, .T. ) ;
#243 = AXIS2_PLACEMENT_3D ( 'NONE', #39, #252, #19 ) ;
#244 = VERTEX_POINT ( 'NONE', #139 ) ;
#245 = ORIENTED_EDGE ( 'NONE', *, *, #73, .F. ) ;
#246 = DIRECTION ( 'NONE',  ( 0.000000000000000000, 0.000000000000000000, 1.000000000000000000 ) ) ;
#247 = AXIS2_PLACEMENT_3D ( 'NONE', #3, #205, #27 ) ;
#248 = ADVANCED_FACE ( 'NONE', ( #220 ), #118, .T. ) ;
#249 = APPROVAL_DATE_TIME ( #113, #223 ) ;
#250 = FACE_OUTER_BOUND ( 'NONE', #201, .T. ) ;
#251 = APPROVAL_ROLE ( '' ) ;
#252 = DIRECTION ( 'NONE',  ( 0.000000000000000000, 0.000000000000000000, 1.000000000000000000 ) ) ;
#253 = FACE_BOUND ( 'NONE', #128, .T. ) ;
#254 = SECURITY_CLASSIFICATION_LEVEL ( 'unclassified' ) ;
#255 = CC_DESIGN_DATE_AND_TIME_ASSIGNMENT ( #159, #153, ( #211 ) ) ;
ENDSEC;
END-ISO-10303-21;
