ISO-10303-21;
HEADER;
FILE_DESCRIPTION (( 'STEP AP203' ),
    '1' );
FILE_NAME ('9bd9.STEP',
    '2022-07-07T17:49:09',
    ( '' ),
    ( '' ),
    'SwSTEP 2.0',
    'SolidWorks 2019',
    '' );
FILE_SCHEMA (( 'CONFIG_CONTROL_DESIGN' ));
ENDSEC;

DATA;
#1 = EDGE_LOOP ( 'NONE', ( #255, #115 ) ) ;
#2 = ORIENTED_EDGE ( 'NONE', *, *, #109, .T. ) ;
#3 = CC_DESIGN_PERSON_AND_ORGANIZATION_ASSIGNMENT ( #238, #141, ( #74 ) ) ;
#4 = PERSON_AND_ORGANIZATION ( #33, #205 ) ;
#5 = PERSON_AND_ORGANIZATION ( #33, #205 ) ;
#6 = APPLICATION_PROTOCOL_DEFINITION ( 'international standard', 'config_control_design', 1994, #148 ) ;
#7 = CARTESIAN_POINT ( 'NONE',  ( 0.000000000000000000, 0.000000000000000000, 3.000000000000000000 ) ) ;
#8 = DATE_AND_TIME ( #243, #62 ) ;
#9 = FACE_OUTER_BOUND ( 'NONE', #16, .T. ) ;
#10 = COORDINATED_UNIVERSAL_TIME_OFFSET ( 1, 0, .AHEAD. ) ;
#11 = CARTESIAN_POINT ( 'NONE',  ( 2.250000000000000000, 2.755455298081544285E-16, 163.0000000000000000 ) ) ;
#12 = APPROVAL_DATE_TIME ( #169, #34 ) ;
#13 = CARTESIAN_POINT ( 'NONE',  ( -4.000000000000000000, 0.000000000000000000, 3.000000000000000000 ) ) ;
#14 = CARTESIAN_POINT ( 'NONE',  ( -2.250000000000000000, 0.000000000000000000, 163.0000000000000000 ) ) ;
#15 = ORIENTED_EDGE ( 'NONE', *, *, #31, .F. ) ;
#16 = EDGE_LOOP ( 'NONE', ( #134, #163 ) ) ;
#17 = ADVANCED_FACE ( 'NONE', ( #55 ), #211, .F. ) ;
#18 = VERTEX_POINT ( 'NONE', #209 ) ;
#19 = CC_DESIGN_APPROVAL ( #38, ( #123 ) ) ;
#20 = EDGE_LOOP ( 'NONE', ( #15, #94 ) ) ;
#21 = EDGE_CURVE ( 'NONE', #157, #212, #188, .T. ) ;
#22 = CIRCLE ( 'NONE', #201, 4.000000000000000000 ) ;
#23 = AXIS2_PLACEMENT_3D ( 'NONE', #208, #191, #113 ) ;
#24 = PLANE ( 'NONE',  #59 ) ;
#25 = PERSON_AND_ORGANIZATION ( #33, #205 ) ;
#26 = ADVANCED_FACE ( 'NONE', ( #210, #9 ), #24, .T. ) ;
#27 = CYLINDRICAL_SURFACE ( 'NONE', #176, 4.000000000000000000 ) ;
#28 = DIRECTION ( 'NONE',  ( -0.000000000000000000, -0.000000000000000000, -1.000000000000000000 ) ) ;
#29 = CIRCLE ( 'NONE', #23, 2.250000000000000000 ) ;
#30 = APPROVAL_ROLE ( '' ) ;
#31 = EDGE_CURVE ( 'NONE', #60, #18, #22, .T. ) ;
#32 = VECTOR ( 'NONE', #70, 1000.000000000000000 ) ;
#33 = PERSON ( 'NEURÈENÝ', 'NEURÈENÝ', 'NEURÈENÝ', ('NEURÈENÝ'), ('NEURÈENÝ'), ('NEURÈENÝ') ) ;
#34 = APPROVAL ( #239, 'NEURÈENÝ' ) ;
#35 = LOCAL_TIME ( 19, 49, 9.000000000000000000, #197 ) ;
#36 = DIRECTION ( 'NONE',  ( 1.000000000000000000, 0.000000000000000000, 0.000000000000000000 ) ) ;
#37 = CYLINDRICAL_SURFACE ( 'NONE', #225, 2.250000000000000000 ) ;
#38 = APPROVAL ( #198, 'NEURÈENÝ' ) ;
#39 = ORIENTED_EDGE ( 'NONE', *, *, #43, .T. ) ;
#40 = CC_DESIGN_DATE_AND_TIME_ASSIGNMENT ( #108, #47, ( #123 ) ) ;
#41 = DIRECTION ( 'NONE',  ( 0.000000000000000000, 0.000000000000000000, 1.000000000000000000 ) ) ;
#42 = APPROVAL_PERSON_ORGANIZATION ( #4, #38, #30 ) ;
#43 = EDGE_CURVE ( 'NONE', #57, #95, #53, .T. ) ;
#44 =( NAMED_UNIT ( * ) SI_UNIT ( $, .STERADIAN. ) SOLID_ANGLE_UNIT ( ) );
#45 = CALENDAR_DATE ( 2022, 7, 7 ) ;
#46 = AXIS2_PLACEMENT_3D ( 'NONE', #79, #159, #231 ) ;
#47 = DATE_TIME_ROLE ( 'creation_date' ) ;
#48 = DIRECTION ( 'NONE',  ( -1.000000000000000000, 0.000000000000000000, 0.000000000000000000 ) ) ;
#49 = PERSON_AND_ORGANIZATION_ROLE ( 'classification_officer' ) ;
#50 = VECTOR ( 'NONE', #207, 1000.000000000000000 ) ;
#51 = ADVANCED_FACE ( 'NONE', ( #72 ), #164, .T. ) ;
#52 = DIRECTION ( 'NONE',  ( 1.000000000000000000, 0.000000000000000000, 0.000000000000000000 ) ) ;
#53 = CIRCLE ( 'NONE', #253, 2.250000000000000000 ) ;
#54 = DIRECTION ( 'NONE',  ( -1.000000000000000000, 0.000000000000000000, 0.000000000000000000 ) ) ;
#55 = FACE_OUTER_BOUND ( 'NONE', #20, .T. ) ;
#56 = LINE ( 'NONE', #14, #50 ) ;
#57 = VERTEX_POINT ( 'NONE', #168 ) ;
#58 = ORIENTED_EDGE ( 'NONE', *, *, #192, .F. ) ;
#59 = AXIS2_PLACEMENT_3D ( 'NONE', #7, #166, #65 ) ;
#60 = VERTEX_POINT ( 'NONE', #218 ) ;
#61 = ORIENTED_EDGE ( 'NONE', *, *, #31, .T. ) ;
#62 = LOCAL_TIME ( 19, 49, 9.000000000000000000, #200 ) ;
#63 = VECTOR ( 'NONE', #156, 1000.000000000000000 ) ;
#64 = VECTOR ( 'NONE', #89, 1000.000000000000000 ) ;
#65 = DIRECTION ( 'NONE',  ( 1.000000000000000000, 0.000000000000000000, -0.000000000000000000 ) ) ;
#66 = PERSON_AND_ORGANIZATION ( #33, #205 ) ;
#67 = APPROVAL_ROLE ( '' ) ;
#68 = CC_DESIGN_PERSON_AND_ORGANIZATION_ASSIGNMENT ( #184, #49, ( #106 ) ) ;
#69 = ADVANCED_BREP_SHAPE_REPRESENTATION ( '9bd9', ( #152, #223 ), #251 ) ;
#70 = DIRECTION ( 'NONE',  ( -0.000000000000000000, -0.000000000000000000, -1.000000000000000000 ) ) ;
#71 = APPROVAL_ROLE ( '' ) ;
#72 = FACE_OUTER_BOUND ( 'NONE', #83, .T. ) ;
#73 = APPLICATION_CONTEXT ( 'configuration controlled 3d designs of mechanical parts and assemblies' ) ;
#74 = PRODUCT ( '9bd9', '9bd9', '', ( #100 ) ) ;
#75 = EDGE_CURVE ( 'NONE', #95, #57, #233, .T. ) ;
#76 = LOCAL_TIME ( 19, 49, 9.000000000000000000, #204 ) ;
#77 = ADVANCED_FACE ( 'NONE', ( #199 ), #27, .T. ) ;
#78 = CARTESIAN_POINT ( 'NONE',  ( 0.000000000000000000, 0.000000000000000000, 3.000000000000000000 ) ) ;
#79 = CARTESIAN_POINT ( 'NONE',  ( 0.000000000000000000, 0.000000000000000000, 3.000000000000000000 ) ) ;
#80 = EDGE_LOOP ( 'NONE', ( #114, #2, #39, #178 ) ) ;
#81 = EDGE_CURVE ( 'NONE', #18, #60, #162, .T. ) ;
#82 = EDGE_LOOP ( 'NONE', ( #177, #175, #235, #96 ) ) ;
#83 = EDGE_LOOP ( 'NONE', ( #179, #58, #137, #232 ) ) ;
#84 = DATE_AND_TIME ( #85, #76 ) ;
#85 = CALENDAR_DATE ( 2022, 7, 7 ) ;
#86 = ADVANCED_FACE ( 'NONE', ( #129 ), #237, .T. ) ;
#87 = DIRECTION ( 'NONE',  ( 1.000000000000000000, 0.000000000000000000, 0.000000000000000000 ) ) ;
#88 = DESIGN_CONTEXT ( 'detailed design', #148, 'design' ) ;
#89 = DIRECTION ( 'NONE',  ( -0.000000000000000000, -0.000000000000000000, -1.000000000000000000 ) ) ;
#90 = CARTESIAN_POINT ( 'NONE',  ( 4.000000000000000000, 4.898587196589412829E-16, 3.000000000000000000 ) ) ;
#91 = EDGE_CURVE ( 'NONE', #157, #60, #101, .T. ) ;
#92 = APPROVAL_PERSON_ORGANIZATION ( #5, #34, #67 ) ;
#93 = CARTESIAN_POINT ( 'NONE',  ( -2.250000000000000000, 0.000000000000000000, 163.0000000000000000 ) ) ;
#94 = ORIENTED_EDGE ( 'NONE', *, *, #81, .F. ) ;
#95 = VERTEX_POINT ( 'NONE', #203 ) ;
#96 = ORIENTED_EDGE ( 'NONE', *, *, #91, .F. ) ;
#97 = EDGE_LOOP ( 'NONE', ( #117, #138, #195, #61 ) ) ;
#98 = CC_DESIGN_PERSON_AND_ORGANIZATION_ASSIGNMENT ( #66, #149, ( #123 ) ) ;
#99 = CYLINDRICAL_SURFACE ( 'NONE', #160, 4.000000000000000000 ) ;
#100 = MECHANICAL_CONTEXT ( 'NONE', #73, 'mechanical' ) ;
#101 = LINE ( 'NONE', #104, #32 ) ;
#102 = APPROVAL_DATE_TIME ( #128, #250 ) ;
#103 = APPLICATION_PROTOCOL_DEFINITION ( 'international standard', 'config_control_design', 1994, #73 ) ;
#104 = CARTESIAN_POINT ( 'NONE',  ( -4.000000000000000000, 0.000000000000000000, 3.000000000000000000 ) ) ;
#105 = DIRECTION ( 'NONE',  ( 0.000000000000000000, 0.000000000000000000, 1.000000000000000000 ) ) ;
#106 = SECURITY_CLASSIFICATION ( '', '', #125 ) ;
#107 = DIRECTION ( 'NONE',  ( 1.000000000000000000, 0.000000000000000000, -0.000000000000000000 ) ) ;
#108 = DATE_AND_TIME ( #45, #35 ) ;
#109 = EDGE_CURVE ( 'NONE', #229, #57, #186, .T. ) ;
#110 = APPROVAL_PERSON_ORGANIZATION ( #25, #250, #71 ) ;
#111 = CC_DESIGN_PERSON_AND_ORGANIZATION_ASSIGNMENT ( #248, #246, ( #216 ) ) ;
#112 = CARTESIAN_POINT ( 'NONE',  ( 4.000000000000000000, 4.898587196589412829E-16, 3.000000000000000000 ) ) ;
#113 = DIRECTION ( 'NONE',  ( 1.000000000000000000, 0.000000000000000000, 0.000000000000000000 ) ) ;
#114 = ORIENTED_EDGE ( 'NONE', *, *, #151, .F. ) ;
#115 = ORIENTED_EDGE ( 'NONE', *, *, #151, .T. ) ;
#116 = ADVANCED_FACE ( 'NONE', ( #120 ), #99, .T. ) ;
#117 = ORIENTED_EDGE ( 'NONE', *, *, #119, .F. ) ;
#118 = CIRCLE ( 'NONE', #241, 2.250000000000000000 ) ;
#119 = EDGE_CURVE ( 'NONE', #212, #18, #132, .T. ) ;
#120 = FACE_OUTER_BOUND ( 'NONE', #82, .T. ) ;
#121 = DIRECTION ( 'NONE',  ( 0.000000000000000000, 0.000000000000000000, 1.000000000000000000 ) ) ;
#122 = CIRCLE ( 'NONE', #249, 4.000000000000000000 ) ;
#123 = PRODUCT_DEFINITION ( 'NEZNÁMÝ', '', #216, #88 ) ;
#124 = DIRECTION ( 'NONE',  ( 1.000000000000000000, 0.000000000000000000, 0.000000000000000000 ) ) ;
#125 = SECURITY_CLASSIFICATION_LEVEL ( 'unclassified' ) ;
#126 = AXIS2_PLACEMENT_3D ( 'NONE', #170, #142, #127 ) ;
#127 = DIRECTION ( 'NONE',  ( -1.000000000000000000, 0.000000000000000000, 0.000000000000000000 ) ) ;
#128 = DATE_AND_TIME ( #130, #213 ) ;
#129 = FACE_OUTER_BOUND ( 'NONE', #1, .T. ) ;
#130 = CALENDAR_DATE ( 2022, 7, 7 ) ;
#131 = DIRECTION ( 'NONE',  ( 0.000000000000000000, 0.000000000000000000, 1.000000000000000000 ) ) ;
#132 = LINE ( 'NONE', #112, #63 ) ;
#133 = CARTESIAN_POINT ( 'NONE',  ( 0.000000000000000000, 0.000000000000000000, 0.000000000000000000 ) ) ;
#134 = ORIENTED_EDGE ( 'NONE', *, *, #21, .T. ) ;
#135 = VERTEX_POINT ( 'NONE', #93 ) ;
#136 = CLOSED_SHELL ( 'NONE', ( #139, #116, #77, #26, #17, #51, #86 ) ) ;
#137 = ORIENTED_EDGE ( 'NONE', *, *, #171, .T. ) ;
#138 = ORIENTED_EDGE ( 'NONE', *, *, #21, .F. ) ;
#139 = ADVANCED_FACE ( 'NONE', ( #230 ), #37, .T. ) ;
#140 = CARTESIAN_POINT ( 'NONE',  ( 0.000000000000000000, 0.000000000000000000, 3.000000000000000000 ) ) ;
#141 = PERSON_AND_ORGANIZATION_ROLE ( 'design_owner' ) ;
#142 = DIRECTION ( 'NONE',  ( -0.000000000000000000, -0.000000000000000000, -1.000000000000000000 ) ) ;
#143 = COORDINATED_UNIVERSAL_TIME_OFFSET ( 1, 0, .AHEAD. ) ;
#144 = CC_DESIGN_SECURITY_CLASSIFICATION ( #106, ( #216 ) ) ;
#145 = EDGE_CURVE ( 'NONE', #212, #157, #122, .T. ) ;
#146 = CARTESIAN_POINT ( 'NONE',  ( 0.000000000000000000, 0.000000000000000000, 3.000000000000000000 ) ) ;
#147 = SHAPE_DEFINITION_REPRESENTATION ( #244, #69 ) ;
#148 = APPLICATION_CONTEXT ( 'configuration controlled 3d designs of mechanical parts and assemblies' ) ;
#149 = PERSON_AND_ORGANIZATION_ROLE ( 'creator' ) ;
#150 = CARTESIAN_POINT ( 'NONE',  ( 0.000000000000000000, 0.000000000000000000, 0.000000000000000000 ) ) ;
#151 = EDGE_CURVE ( 'NONE', #229, #135, #29, .T. ) ;
#152 = MANIFOLD_SOLID_BREP ( 'Pøidat vysunutím3', #136 ) ;
#153 = AXIS2_PLACEMENT_3D ( 'NONE', #133, #254, #161 ) ;
#154 = CC_DESIGN_PERSON_AND_ORGANIZATION_ASSIGNMENT ( #206, #167, ( #216 ) ) ;
#155 = LOCAL_TIME ( 19, 49, 9.000000000000000000, #143 ) ;
#156 = DIRECTION ( 'NONE',  ( -0.000000000000000000, -0.000000000000000000, -1.000000000000000000 ) ) ;
#157 = VERTEX_POINT ( 'NONE', #13 ) ;
#158 = DIRECTION ( 'NONE',  ( -0.000000000000000000, -0.000000000000000000, -1.000000000000000000 ) ) ;
#159 = DIRECTION ( 'NONE',  ( 0.000000000000000000, 0.000000000000000000, 1.000000000000000000 ) ) ;
#160 = AXIS2_PLACEMENT_3D ( 'NONE', #180, #214, #54 ) ;
#161 = DIRECTION ( 'NONE',  ( 1.000000000000000000, 0.000000000000000000, -0.000000000000000000 ) ) ;
#162 = CIRCLE ( 'NONE', #189, 4.000000000000000000 ) ;
#163 = ORIENTED_EDGE ( 'NONE', *, *, #145, .T. ) ;
#164 = CYLINDRICAL_SURFACE ( 'NONE', #126, 2.250000000000000000 ) ;
#165 = DIRECTION ( 'NONE',  ( 1.000000000000000000, 0.000000000000000000, 0.000000000000000000 ) ) ;
#166 = DIRECTION ( 'NONE',  ( 0.000000000000000000, 0.000000000000000000, 1.000000000000000000 ) ) ;
#167 = PERSON_AND_ORGANIZATION_ROLE ( 'creator' ) ;
#168 = CARTESIAN_POINT ( 'NONE',  ( 2.250000000000000000, 2.755455298081544285E-16, 3.000000000000000000 ) ) ;
#169 = DATE_AND_TIME ( #219, #155 ) ;
#170 = CARTESIAN_POINT ( 'NONE',  ( 0.000000000000000000, 0.000000000000000000, 163.0000000000000000 ) ) ;
#171 = EDGE_CURVE ( 'NONE', #135, #95, #56, .T. ) ;
#172 = DIRECTION ( 'NONE',  ( 1.000000000000000000, 0.000000000000000000, 0.000000000000000000 ) ) ;
#173 = CARTESIAN_POINT ( 'NONE',  ( 2.250000000000000000, 2.755455298081544285E-16, 163.0000000000000000 ) ) ;
#174 = CARTESIAN_POINT ( 'NONE',  ( 0.000000000000000000, 0.000000000000000000, 163.0000000000000000 ) ) ;
#175 = ORIENTED_EDGE ( 'NONE', *, *, #119, .T. ) ;
#176 = AXIS2_PLACEMENT_3D ( 'NONE', #220, #28, #48 ) ;
#177 = ORIENTED_EDGE ( 'NONE', *, *, #145, .F. ) ;
#178 = ORIENTED_EDGE ( 'NONE', *, *, #171, .F. ) ;
#179 = ORIENTED_EDGE ( 'NONE', *, *, #109, .F. ) ;
#180 = CARTESIAN_POINT ( 'NONE',  ( 0.000000000000000000, 0.000000000000000000, 3.000000000000000000 ) ) ;
#181 = CC_DESIGN_APPROVAL ( #250, ( #216 ) ) ;
#182 = CARTESIAN_POINT ( 'NONE',  ( 0.000000000000000000, 0.000000000000000000, 0.000000000000000000 ) ) ;
#183 = DATE_TIME_ROLE ( 'classification_date' ) ;
#184 = PERSON_AND_ORGANIZATION ( #33, #205 ) ;
#185 = CC_DESIGN_DATE_AND_TIME_ASSIGNMENT ( #8, #183, ( #106 ) ) ;
#186 = LINE ( 'NONE', #11, #64 ) ;
#187 = APPROVAL_STATUS ( 'not_yet_approved' ) ;
#188 = CIRCLE ( 'NONE', #46, 4.000000000000000000 ) ;
#189 = AXIS2_PLACEMENT_3D ( 'NONE', #150, #105, #87 ) ;
#190 = CARTESIAN_POINT ( 'NONE',  ( 0.000000000000000000, 0.000000000000000000, 163.0000000000000000 ) ) ;
#191 = DIRECTION ( 'NONE',  ( 0.000000000000000000, 0.000000000000000000, 1.000000000000000000 ) ) ;
#192 = EDGE_CURVE ( 'NONE', #135, #229, #118, .T. ) ;
#193 = ORIENTED_EDGE ( 'NONE', *, *, #75, .F. ) ;
#194 = EDGE_LOOP ( 'NONE', ( #193, #234 ) ) ;
#195 = ORIENTED_EDGE ( 'NONE', *, *, #91, .T. ) ;
#196 = DIRECTION ( 'NONE',  ( 0.000000000000000000, 0.000000000000000000, 1.000000000000000000 ) ) ;
#197 = COORDINATED_UNIVERSAL_TIME_OFFSET ( 1, 0, .AHEAD. ) ;
#198 = APPROVAL_STATUS ( 'not_yet_approved' ) ;
#199 = FACE_OUTER_BOUND ( 'NONE', #97, .T. ) ;
#200 = COORDINATED_UNIVERSAL_TIME_OFFSET ( 1, 0, .AHEAD. ) ;
#201 = AXIS2_PLACEMENT_3D ( 'NONE', #245, #121, #172 ) ;
#202 = DIRECTION ( 'NONE',  ( 0.000000000000000000, 0.000000000000000000, 1.000000000000000000 ) ) ;
#203 = CARTESIAN_POINT ( 'NONE',  ( -2.250000000000000000, 0.000000000000000000, 3.000000000000000000 ) ) ;
#204 = COORDINATED_UNIVERSAL_TIME_OFFSET ( 1, 0, .AHEAD. ) ;
#205 = ORGANIZATION ( 'NEURÈENÝ', 'NEURÈENÝ', '' ) ;
#206 = PERSON_AND_ORGANIZATION ( #33, #205 ) ;
#207 = DIRECTION ( 'NONE',  ( -0.000000000000000000, -0.000000000000000000, -1.000000000000000000 ) ) ;
#208 = CARTESIAN_POINT ( 'NONE',  ( 0.000000000000000000, 0.000000000000000000, 163.0000000000000000 ) ) ;
#209 = CARTESIAN_POINT ( 'NONE',  ( 4.000000000000000000, 4.898587196589412829E-16, 0.000000000000000000 ) ) ;
#210 = FACE_BOUND ( 'NONE', #194, .T. ) ;
#211 = PLANE ( 'NONE',  #153 ) ;
#212 = VERTEX_POINT ( 'NONE', #90 ) ;
#213 = LOCAL_TIME ( 19, 49, 9.000000000000000000, #10 ) ;
#214 = DIRECTION ( 'NONE',  ( -0.000000000000000000, -0.000000000000000000, -1.000000000000000000 ) ) ;
#215 = CARTESIAN_POINT ( 'NONE',  ( 0.000000000000000000, 0.000000000000000000, 163.0000000000000000 ) ) ;
#216 = PRODUCT_DEFINITION_FORMATION_WITH_SPECIFIED_SOURCE ( 'LIBOVOLNÝ', '', #74, .NOT_KNOWN. ) ;
#217 =( LENGTH_UNIT ( ) NAMED_UNIT ( * ) SI_UNIT ( .MILLI., .METRE. ) );
#218 = CARTESIAN_POINT ( 'NONE',  ( -4.000000000000000000, 0.000000000000000000, 0.000000000000000000 ) ) ;
#219 = CALENDAR_DATE ( 2022, 7, 7 ) ;
#220 = CARTESIAN_POINT ( 'NONE',  ( 0.000000000000000000, 0.000000000000000000, 3.000000000000000000 ) ) ;
#221 = AXIS2_PLACEMENT_3D ( 'NONE', #215, #41, #107 ) ;
#222 = DIRECTION ( 'NONE',  ( 1.000000000000000000, 0.000000000000000000, 0.000000000000000000 ) ) ;
#223 = AXIS2_PLACEMENT_3D ( 'NONE', #182, #196, #165 ) ;
#224 = APPROVAL_DATE_TIME ( #84, #38 ) ;
#225 = AXIS2_PLACEMENT_3D ( 'NONE', #174, #158, #227 ) ;
#226 = UNCERTAINTY_MEASURE_WITH_UNIT (LENGTH_MEASURE( 1.000000000000000082E-05 ), #217, 'distance_accuracy_value', 'NONE');
#227 = DIRECTION ( 'NONE',  ( -1.000000000000000000, 0.000000000000000000, 0.000000000000000000 ) ) ;
#228 = AXIS2_PLACEMENT_3D ( 'NONE', #140, #202, #124 ) ;
#229 = VERTEX_POINT ( 'NONE', #173 ) ;
#230 = FACE_OUTER_BOUND ( 'NONE', #80, .T. ) ;
#231 = DIRECTION ( 'NONE',  ( 1.000000000000000000, 0.000000000000000000, 0.000000000000000000 ) ) ;
#232 = ORIENTED_EDGE ( 'NONE', *, *, #75, .T. ) ;
#233 = CIRCLE ( 'NONE', #228, 2.250000000000000000 ) ;
#234 = ORIENTED_EDGE ( 'NONE', *, *, #43, .F. ) ;
#235 = ORIENTED_EDGE ( 'NONE', *, *, #81, .T. ) ;
#236 = CC_DESIGN_APPROVAL ( #34, ( #106 ) ) ;
#237 = PLANE ( 'NONE',  #221 ) ;
#238 = PERSON_AND_ORGANIZATION ( #33, #205 ) ;
#239 = APPROVAL_STATUS ( 'not_yet_approved' ) ;
#240 = PRODUCT_RELATED_PRODUCT_CATEGORY ( 'detail', '', ( #74 ) ) ;
#241 = AXIS2_PLACEMENT_3D ( 'NONE', #190, #252, #52 ) ;
#242 =( NAMED_UNIT ( * ) PLANE_ANGLE_UNIT ( ) SI_UNIT ( $, .RADIAN. ) );
#243 = CALENDAR_DATE ( 2022, 7, 7 ) ;
#244 = PRODUCT_DEFINITION_SHAPE ( 'NONE', 'NONE',  #123 ) ;
#245 = CARTESIAN_POINT ( 'NONE',  ( 0.000000000000000000, 0.000000000000000000, 0.000000000000000000 ) ) ;
#246 = PERSON_AND_ORGANIZATION_ROLE ( 'design_supplier' ) ;
#247 = DIRECTION ( 'NONE',  ( 0.000000000000000000, 0.000000000000000000, 1.000000000000000000 ) ) ;
#248 = PERSON_AND_ORGANIZATION ( #33, #205 ) ;
#249 = AXIS2_PLACEMENT_3D ( 'NONE', #78, #131, #36 ) ;
#250 = APPROVAL ( #187, 'NEURÈENÝ' ) ;
#251 =( GEOMETRIC_REPRESENTATION_CONTEXT ( 3 ) GLOBAL_UNCERTAINTY_ASSIGNED_CONTEXT ( ( #226 ) ) GLOBAL_UNIT_ASSIGNED_CONTEXT ( ( #217, #242, #44 ) ) REPRESENTATION_CONTEXT ( 'NONE', 'WORKASPACE' ) );
#252 = DIRECTION ( 'NONE',  ( 0.000000000000000000, 0.000000000000000000, 1.000000000000000000 ) ) ;
#253 = AXIS2_PLACEMENT_3D ( 'NONE', #146, #247, #222 ) ;
#254 = DIRECTION ( 'NONE',  ( 0.000000000000000000, 0.000000000000000000, 1.000000000000000000 ) ) ;
#255 = ORIENTED_EDGE ( 'NONE', *, *, #192, .T. ) ;
ENDSEC;
END-ISO-10303-21;
