ISO-10303-21;
HEADER;
FILE_DESCRIPTION (( 'STEP AP203' ),
    '1' );
FILE_NAME ('2b1d.STEP',
    '2022-07-07T17:07:12',
    ( '' ),
    ( '' ),
    'SwSTEP 2.0',
    'SolidWorks 2019',
    '' );
FILE_SCHEMA (( 'CONFIG_CONTROL_DESIGN' ));
ENDSEC;

DATA;
#1 = AXIS2_PLACEMENT_3D ( 'NONE', #221, #8, #239 ) ;
#2 = ORIENTED_EDGE ( 'NONE', *, *, #161, .F. ) ;
#3 = CALENDAR_DATE ( 2022, 7, 7 ) ;
#4 = ORIENTED_EDGE ( 'NONE', *, *, #153, .T. ) ;
#5 = APPROVAL_PERSON_ORGANIZATION ( #55, #39, #90 ) ;
#6 = PRODUCT ( '2b1d', '2b1d', '', ( #79 ) ) ;
#7 = CARTESIAN_POINT ( 'NONE',  ( 0.000000000000000000, 0.000000000000000000, 7.000000000000000000 ) ) ;
#8 = DIRECTION ( 'NONE',  ( 0.000000000000000000, 0.000000000000000000, 1.000000000000000000 ) ) ;
#9 = AXIS2_PLACEMENT_3D ( 'NONE', #113, #189, #87 ) ;
#10 = VECTOR ( 'NONE', #181, 1000.000000000000000 ) ;
#11 = ORIENTED_EDGE ( 'NONE', *, *, #161, .T. ) ;
#12 = CIRCLE ( 'NONE', #38, 11.00000000000000000 ) ;
#13 = LINE ( 'NONE', #248, #171 ) ;
#14 = PERSON_AND_ORGANIZATION ( #138, #201 ) ;
#15 = CARTESIAN_POINT ( 'NONE',  ( -8.000000000000000000, 0.000000000000000000, 507.0000000000000000 ) ) ;
#16 = PERSON_AND_ORGANIZATION ( #138, #201 ) ;
#17 = COORDINATED_UNIVERSAL_TIME_OFFSET ( 1, 0, .AHEAD. ) ;
#18 = APPROVAL_STATUS ( 'not_yet_approved' ) ;
#19 = AXIS2_PLACEMENT_3D ( 'NONE', #240, #33, #126 ) ;
#20 = ORIENTED_EDGE ( 'NONE', *, *, #166, .F. ) ;
#21 = EDGE_CURVE ( 'NONE', #71, #52, #137, .T. ) ;
#22 = DIRECTION ( 'NONE',  ( -1.000000000000000000, 0.000000000000000000, 0.000000000000000000 ) ) ;
#23 = CARTESIAN_POINT ( 'NONE',  ( 0.000000000000000000, 0.000000000000000000, 7.000000000000000000 ) ) ;
#24 = EDGE_LOOP ( 'NONE', ( #188, #227, #149, #219 ) ) ;
#25 = MANIFOLD_SOLID_BREP ( 'Pøidat vysunutím3', #213 ) ;
#26 = AXIS2_PLACEMENT_3D ( 'NONE', #88, #173, #65 ) ;
#27 = CIRCLE ( 'NONE', #77, 8.000000000000000000 ) ;
#28 = LINE ( 'NONE', #112, #54 ) ;
#29 = CC_DESIGN_APPROVAL ( #222, ( #31 ) ) ;
#30 = EDGE_CURVE ( 'NONE', #127, #180, #63, .T. ) ;
#31 = PRODUCT_DEFINITION ( 'NEZNÁMÝ', '', #94, #84 ) ;
#32 = CARTESIAN_POINT ( 'NONE',  ( 8.000000000000000000, 9.797174393178825657E-16, 507.0000000000000000 ) ) ;
#33 = DIRECTION ( 'NONE',  ( 0.000000000000000000, 0.000000000000000000, 1.000000000000000000 ) ) ;
#34 = ADVANCED_FACE ( 'NONE', ( #83, #204 ), #167, .T. ) ;
#35 = DIRECTION ( 'NONE',  ( 0.000000000000000000, 0.000000000000000000, 1.000000000000000000 ) ) ;
#36 = COORDINATED_UNIVERSAL_TIME_OFFSET ( 1, 0, .AHEAD. ) ;
#37 = PERSON_AND_ORGANIZATION ( #138, #201 ) ;
#38 = AXIS2_PLACEMENT_3D ( 'NONE', #163, #182, #194 ) ;
#39 = APPROVAL ( #133, 'NEURÈENÝ' ) ;
#40 = PLANE ( 'NONE',  #1 ) ;
#41 = ORIENTED_EDGE ( 'NONE', *, *, #118, .F. ) ;
#42 = COORDINATED_UNIVERSAL_TIME_OFFSET ( 1, 0, .AHEAD. ) ;
#43 = DIRECTION ( 'NONE',  ( -1.000000000000000000, 0.000000000000000000, 0.000000000000000000 ) ) ;
#44 = PERSON_AND_ORGANIZATION ( #138, #201 ) ;
#45 = CARTESIAN_POINT ( 'NONE',  ( 0.000000000000000000, 0.000000000000000000, 507.0000000000000000 ) ) ;
#46 = ORIENTED_EDGE ( 'NONE', *, *, #166, .T. ) ;
#47 = EDGE_CURVE ( 'NONE', #114, #125, #28, .T. ) ;
#48 = APPLICATION_CONTEXT ( 'configuration controlled 3d designs of mechanical parts and assemblies' ) ;
#49 = DIRECTION ( 'NONE',  ( 1.000000000000000000, 0.000000000000000000, -0.000000000000000000 ) ) ;
#50 = EDGE_LOOP ( 'NONE', ( #46, #123 ) ) ;
#51 = DIRECTION ( 'NONE',  ( 0.000000000000000000, 0.000000000000000000, 1.000000000000000000 ) ) ;
#52 = VERTEX_POINT ( 'NONE', #156 ) ;
#53 = LINE ( 'NONE', #15, #198 ) ;
#54 = VECTOR ( 'NONE', #78, 1000.000000000000000 ) ;
#55 = PERSON_AND_ORGANIZATION ( #138, #201 ) ;
#56 = APPROVAL_DATE_TIME ( #210, #39 ) ;
#57 = AXIS2_PLACEMENT_3D ( 'NONE', #62, #255, #143 ) ;
#58 = DIRECTION ( 'NONE',  ( 1.000000000000000000, 0.000000000000000000, 0.000000000000000000 ) ) ;
#59 = DATE_AND_TIME ( #232, #250 ) ;
#60 = AXIS2_PLACEMENT_3D ( 'NONE', #233, #142, #43 ) ;
#61 = CARTESIAN_POINT ( 'NONE',  ( -8.000000000000000000, 0.000000000000000000, 507.0000000000000000 ) ) ;
#62 = CARTESIAN_POINT ( 'NONE',  ( 0.000000000000000000, 0.000000000000000000, 0.000000000000000000 ) ) ;
#63 = CIRCLE ( 'NONE', #26, 8.000000000000000000 ) ;
#64 = CYLINDRICAL_SURFACE ( 'NONE', #103, 8.000000000000000000 ) ;
#65 = DIRECTION ( 'NONE',  ( 1.000000000000000000, 0.000000000000000000, 0.000000000000000000 ) ) ;
#66 = ADVANCED_FACE ( 'NONE', ( #82 ), #96, .T. ) ;
#67 = CARTESIAN_POINT ( 'NONE',  ( 0.000000000000000000, 0.000000000000000000, 7.000000000000000000 ) ) ;
#68 = EDGE_CURVE ( 'NONE', #110, #125, #12, .T. ) ;
#69 = ORIENTED_EDGE ( 'NONE', *, *, #68, .F. ) ;
#70 = CYLINDRICAL_SURFACE ( 'NONE', #9, 8.000000000000000000 ) ;
#71 = VERTEX_POINT ( 'NONE', #202 ) ;
#72 = CARTESIAN_POINT ( 'NONE',  ( 0.000000000000000000, 0.000000000000000000, 0.000000000000000000 ) ) ;
#73 = EDGE_CURVE ( 'NONE', #114, #97, #209, .T. ) ;
#74 = CALENDAR_DATE ( 2022, 7, 7 ) ;
#75 = PERSON_AND_ORGANIZATION_ROLE ( 'classification_officer' ) ;
#76 = AXIS2_PLACEMENT_3D ( 'NONE', #148, #208, #132 ) ;
#77 = AXIS2_PLACEMENT_3D ( 'NONE', #115, #51, #129 ) ;
#78 = DIRECTION ( 'NONE',  ( -0.000000000000000000, -0.000000000000000000, -1.000000000000000000 ) ) ;
#79 = MECHANICAL_CONTEXT ( 'NONE', #48, 'mechanical' ) ;
#80 = FACE_OUTER_BOUND ( 'NONE', #24, .T. ) ;
#81 = EDGE_LOOP ( 'NONE', ( #242, #146, #203, #2 ) ) ;
#82 = FACE_OUTER_BOUND ( 'NONE', #50, .T. ) ;
#83 = FACE_BOUND ( 'NONE', #224, .T. ) ;
#84 = DESIGN_CONTEXT ( 'detailed design', #92, 'design' ) ;
#85 = ORIENTED_EDGE ( 'NONE', *, *, #73, .F. ) ;
#86 = CIRCLE ( 'NONE', #76, 8.000000000000000000 ) ;
#87 = DIRECTION ( 'NONE',  ( -1.000000000000000000, 0.000000000000000000, 0.000000000000000000 ) ) ;
#88 = CARTESIAN_POINT ( 'NONE',  ( 0.000000000000000000, 0.000000000000000000, 507.0000000000000000 ) ) ;
#89 = CC_DESIGN_APPROVAL ( #235, ( #94 ) ) ;
#90 = APPROVAL_ROLE ( '' ) ;
#91 = DIRECTION ( 'NONE',  ( -0.000000000000000000, -0.000000000000000000, -1.000000000000000000 ) ) ;
#92 = APPLICATION_CONTEXT ( 'configuration controlled 3d designs of mechanical parts and assemblies' ) ;
#93 = APPROVAL_DATE_TIME ( #190, #235 ) ;
#94 = PRODUCT_DEFINITION_FORMATION_WITH_SPECIFIED_SOURCE ( 'LIBOVOLNÝ', '', #6, .NOT_KNOWN. ) ;
#95 = AXIS2_PLACEMENT_3D ( 'NONE', #99, #145, #124 ) ;
#96 = PLANE ( 'NONE',  #95 ) ;
#97 = VERTEX_POINT ( 'NONE', #139 ) ;
#98 = APPLICATION_PROTOCOL_DEFINITION ( 'international standard', 'config_control_design', 1994, #92 ) ;
#99 = CARTESIAN_POINT ( 'NONE',  ( 0.000000000000000000, 0.000000000000000000, 507.0000000000000000 ) ) ;
#100 = EDGE_LOOP ( 'NONE', ( #41, #20, #11, #195 ) ) ;
#101 = ADVANCED_FACE ( 'NONE', ( #215 ), #40, .F. ) ;
#102 = APPROVAL_ROLE ( '' ) ;
#103 = AXIS2_PLACEMENT_3D ( 'NONE', #45, #254, #187 ) ;
#104 = AXIS2_PLACEMENT_3D ( 'NONE', #7, #237, #22 ) ;
#105 =( NAMED_UNIT ( * ) PLANE_ANGLE_UNIT ( ) SI_UNIT ( $, .RADIAN. ) );
#106 = PERSON_AND_ORGANIZATION_ROLE ( 'design_owner' ) ;
#107 = CC_DESIGN_PERSON_AND_ORGANIZATION_ASSIGNMENT ( #14, #176, ( #94 ) ) ;
#108 =( LENGTH_UNIT ( ) NAMED_UNIT ( * ) SI_UNIT ( .MILLI., .METRE. ) );
#109 = PRODUCT_RELATED_PRODUCT_CATEGORY ( 'detail', '', ( #6 ) ) ;
#110 = VERTEX_POINT ( 'NONE', #177 ) ;
#111 = ADVANCED_FACE ( 'NONE', ( #121 ), #64, .T. ) ;
#112 = CARTESIAN_POINT ( 'NONE',  ( 11.00000000000000000, 1.347111479062088405E-15, 7.000000000000000000 ) ) ;
#113 = CARTESIAN_POINT ( 'NONE',  ( 0.000000000000000000, 0.000000000000000000, 507.0000000000000000 ) ) ;
#114 = VERTEX_POINT ( 'NONE', #175 ) ;
#115 = CARTESIAN_POINT ( 'NONE',  ( 0.000000000000000000, 0.000000000000000000, 7.000000000000000000 ) ) ;
#116 = APPROVAL_ROLE ( '' ) ;
#117 = APPROVAL_STATUS ( 'not_yet_approved' ) ;
#118 = EDGE_CURVE ( 'NONE', #127, #52, #13, .T. ) ;
#119 = EDGE_CURVE ( 'NONE', #125, #110, #238, .T. ) ;
#120 = CC_DESIGN_PERSON_AND_ORGANIZATION_ASSIGNMENT ( #140, #217, ( #31 ) ) ;
#121 = FACE_OUTER_BOUND ( 'NONE', #100, .T. ) ;
#122 = ORIENTED_EDGE ( 'NONE', *, *, #47, .T. ) ;
#123 = ORIENTED_EDGE ( 'NONE', *, *, #30, .T. ) ;
#124 = DIRECTION ( 'NONE',  ( 1.000000000000000000, 0.000000000000000000, -0.000000000000000000 ) ) ;
#125 = VERTEX_POINT ( 'NONE', #225 ) ;
#126 = DIRECTION ( 'NONE',  ( 1.000000000000000000, 0.000000000000000000, 0.000000000000000000 ) ) ;
#127 = VERTEX_POINT ( 'NONE', #32 ) ;
#128 = LOCAL_TIME ( 19, 7, 12.00000000000000000, #36 ) ;
#129 = DIRECTION ( 'NONE',  ( 1.000000000000000000, 0.000000000000000000, 0.000000000000000000 ) ) ;
#130 = EDGE_LOOP ( 'NONE', ( #69, #246 ) ) ;
#131 = CC_DESIGN_PERSON_AND_ORGANIZATION_ASSIGNMENT ( #229, #174, ( #94 ) ) ;
#132 = DIRECTION ( 'NONE',  ( 1.000000000000000000, 0.000000000000000000, 0.000000000000000000 ) ) ;
#133 = APPROVAL_STATUS ( 'not_yet_approved' ) ;
#134 = DATE_TIME_ROLE ( 'classification_date' ) ;
#135 = ADVANCED_FACE ( 'NONE', ( #207 ), #70, .T. ) ;
#136 = AXIS2_PLACEMENT_3D ( 'NONE', #228, #35, #245 ) ;
#137 = CIRCLE ( 'NONE', #19, 8.000000000000000000 ) ;
#138 = PERSON ( 'NEURÈENÝ', 'NEURÈENÝ', 'NEURÈENÝ', ('NEURÈENÝ'), ('NEURÈENÝ'), ('NEURÈENÝ') ) ;
#139 = CARTESIAN_POINT ( 'NONE',  ( -11.00000000000000000, 0.000000000000000000, 7.000000000000000000 ) ) ;
#140 = PERSON_AND_ORGANIZATION ( #138, #201 ) ;
#141 = APPROVAL_PERSON_ORGANIZATION ( #157, #222, #102 ) ;
#142 = DIRECTION ( 'NONE',  ( -0.000000000000000000, -0.000000000000000000, -1.000000000000000000 ) ) ;
#143 = DIRECTION ( 'NONE',  ( 1.000000000000000000, 0.000000000000000000, 0.000000000000000000 ) ) ;
#144 = LINE ( 'NONE', #218, #10 ) ;
#145 = DIRECTION ( 'NONE',  ( 0.000000000000000000, 0.000000000000000000, 1.000000000000000000 ) ) ;
#146 = ORIENTED_EDGE ( 'NONE', *, *, #118, .T. ) ;
#147 = ORIENTED_EDGE ( 'NONE', *, *, #184, .F. ) ;
#148 = CARTESIAN_POINT ( 'NONE',  ( 0.000000000000000000, 0.000000000000000000, 507.0000000000000000 ) ) ;
#149 = ORIENTED_EDGE ( 'NONE', *, *, #184, .T. ) ;
#150 = LOCAL_TIME ( 19, 7, 12.00000000000000000, #211 ) ;
#151 = DIRECTION ( 'NONE',  ( 0.000000000000000000, 0.000000000000000000, 1.000000000000000000 ) ) ;
#152 = CALENDAR_DATE ( 2022, 7, 7 ) ;
#153 = EDGE_CURVE ( 'NONE', #97, #114, #193, .T. ) ;
#154 = CALENDAR_DATE ( 2022, 7, 7 ) ;
#155 = AXIS2_PLACEMENT_3D ( 'NONE', #23, #231, #58 ) ;
#156 = CARTESIAN_POINT ( 'NONE',  ( 8.000000000000000000, 9.797174393178825657E-16, 7.000000000000000000 ) ) ;
#157 = PERSON_AND_ORGANIZATION ( #138, #201 ) ;
#158 = DATE_AND_TIME ( #3, #205 ) ;
#159 = SECURITY_CLASSIFICATION ( '', '', #249 ) ;
#160 = CYLINDRICAL_SURFACE ( 'NONE', #60, 11.00000000000000000 ) ;
#161 = EDGE_CURVE ( 'NONE', #180, #71, #53, .T. ) ;
#162 = CYLINDRICAL_SURFACE ( 'NONE', #104, 11.00000000000000000 ) ;
#163 = CARTESIAN_POINT ( 'NONE',  ( 0.000000000000000000, 0.000000000000000000, 0.000000000000000000 ) ) ;
#164 = AXIS2_PLACEMENT_3D ( 'NONE', #67, #223, #49 ) ;
#165 = ORIENTED_EDGE ( 'NONE', *, *, #169, .F. ) ;
#166 = EDGE_CURVE ( 'NONE', #180, #127, #86, .T. ) ;
#167 = PLANE ( 'NONE',  #164 ) ;
#168 = EDGE_LOOP ( 'NONE', ( #4, #197 ) ) ;
#169 = EDGE_CURVE ( 'NONE', #52, #71, #27, .T. ) ;
#170 = ORIENTED_EDGE ( 'NONE', *, *, #119, .T. ) ;
#171 = VECTOR ( 'NONE', #91, 1000.000000000000000 ) ;
#172 = DIRECTION ( 'NONE',  ( 1.000000000000000000, 0.000000000000000000, 0.000000000000000000 ) ) ;
#173 = DIRECTION ( 'NONE',  ( 0.000000000000000000, 0.000000000000000000, 1.000000000000000000 ) ) ;
#174 = PERSON_AND_ORGANIZATION_ROLE ( 'design_supplier' ) ;
#175 = CARTESIAN_POINT ( 'NONE',  ( 11.00000000000000000, 1.347111479062088405E-15, 7.000000000000000000 ) ) ;
#176 = PERSON_AND_ORGANIZATION_ROLE ( 'creator' ) ;
#177 = CARTESIAN_POINT ( 'NONE',  ( -11.00000000000000000, 0.000000000000000000, 0.000000000000000000 ) ) ;
#178 = CC_DESIGN_DATE_AND_TIME_ASSIGNMENT ( #158, #200, ( #31 ) ) ;
#179 = COORDINATED_UNIVERSAL_TIME_OFFSET ( 1, 0, .AHEAD. ) ;
#180 = VERTEX_POINT ( 'NONE', #61 ) ;
#181 = DIRECTION ( 'NONE',  ( -0.000000000000000000, -0.000000000000000000, -1.000000000000000000 ) ) ;
#182 = DIRECTION ( 'NONE',  ( 0.000000000000000000, 0.000000000000000000, 1.000000000000000000 ) ) ;
#183 = ORIENTED_EDGE ( 'NONE', *, *, #21, .F. ) ;
#184 = EDGE_CURVE ( 'NONE', #97, #110, #144, .T. ) ;
#185 = EDGE_LOOP ( 'NONE', ( #85, #122, #170, #147 ) ) ;
#186 = UNCERTAINTY_MEASURE_WITH_UNIT (LENGTH_MEASURE( 1.000000000000000082E-05 ), #108, 'distance_accuracy_value', 'NONE');
#187 = DIRECTION ( 'NONE',  ( -1.000000000000000000, 0.000000000000000000, 0.000000000000000000 ) ) ;
#188 = ORIENTED_EDGE ( 'NONE', *, *, #47, .F. ) ;
#189 = DIRECTION ( 'NONE',  ( -0.000000000000000000, -0.000000000000000000, -1.000000000000000000 ) ) ;
#190 = DATE_AND_TIME ( #74, #128 ) ;
#191 = SHAPE_DEFINITION_REPRESENTATION ( #206, #253 ) ;
#192 = ADVANCED_FACE ( 'NONE', ( #196 ), #162, .T. ) ;
#193 = CIRCLE ( 'NONE', #136, 11.00000000000000000 ) ;
#194 = DIRECTION ( 'NONE',  ( 1.000000000000000000, 0.000000000000000000, 0.000000000000000000 ) ) ;
#195 = ORIENTED_EDGE ( 'NONE', *, *, #21, .T. ) ;
#196 = FACE_OUTER_BOUND ( 'NONE', #185, .T. ) ;
#197 = ORIENTED_EDGE ( 'NONE', *, *, #73, .T. ) ;
#198 = VECTOR ( 'NONE', #244, 1000.000000000000000 ) ;
#199 = APPROVAL_DATE_TIME ( #59, #222 ) ;
#200 = DATE_TIME_ROLE ( 'creation_date' ) ;
#201 = ORGANIZATION ( 'NEURÈENÝ', 'NEURÈENÝ', '' ) ;
#202 = CARTESIAN_POINT ( 'NONE',  ( -8.000000000000000000, 0.000000000000000000, 7.000000000000000000 ) ) ;
#203 = ORIENTED_EDGE ( 'NONE', *, *, #169, .T. ) ;
#204 = FACE_OUTER_BOUND ( 'NONE', #168, .T. ) ;
#205 = LOCAL_TIME ( 19, 7, 12.00000000000000000, #42 ) ;
#206 = PRODUCT_DEFINITION_SHAPE ( 'NONE', 'NONE',  #31 ) ;
#207 = FACE_OUTER_BOUND ( 'NONE', #81, .T. ) ;
#208 = DIRECTION ( 'NONE',  ( 0.000000000000000000, 0.000000000000000000, 1.000000000000000000 ) ) ;
#209 = CIRCLE ( 'NONE', #155, 11.00000000000000000 ) ;
#210 = DATE_AND_TIME ( #154, #150 ) ;
#211 = COORDINATED_UNIVERSAL_TIME_OFFSET ( 1, 0, .AHEAD. ) ;
#212 = CC_DESIGN_DATE_AND_TIME_ASSIGNMENT ( #247, #134, ( #159 ) ) ;
#213 = CLOSED_SHELL ( 'NONE', ( #135, #192, #241, #34, #101, #111, #66 ) ) ;
#214 = CC_DESIGN_APPROVAL ( #39, ( #159 ) ) ;
#215 = FACE_OUTER_BOUND ( 'NONE', #130, .T. ) ;
#216 = CC_DESIGN_SECURITY_CLASSIFICATION ( #159, ( #94 ) ) ;
#217 = PERSON_AND_ORGANIZATION_ROLE ( 'creator' ) ;
#218 = CARTESIAN_POINT ( 'NONE',  ( -11.00000000000000000, 0.000000000000000000, 7.000000000000000000 ) ) ;
#219 = ORIENTED_EDGE ( 'NONE', *, *, #68, .T. ) ;
#220 = APPLICATION_PROTOCOL_DEFINITION ( 'international standard', 'config_control_design', 1994, #48 ) ;
#221 = CARTESIAN_POINT ( 'NONE',  ( 0.000000000000000000, 0.000000000000000000, 0.000000000000000000 ) ) ;
#222 = APPROVAL ( #18, 'NEURÈENÝ' ) ;
#223 = DIRECTION ( 'NONE',  ( 0.000000000000000000, 0.000000000000000000, 1.000000000000000000 ) ) ;
#224 = EDGE_LOOP ( 'NONE', ( #183, #165 ) ) ;
#225 = CARTESIAN_POINT ( 'NONE',  ( 11.00000000000000000, 1.347111479062088405E-15, 0.000000000000000000 ) ) ;
#226 = LOCAL_TIME ( 19, 7, 12.00000000000000000, #17 ) ;
#227 = ORIENTED_EDGE ( 'NONE', *, *, #153, .F. ) ;
#228 = CARTESIAN_POINT ( 'NONE',  ( 0.000000000000000000, 0.000000000000000000, 7.000000000000000000 ) ) ;
#229 = PERSON_AND_ORGANIZATION ( #138, #201 ) ;
#230 = CC_DESIGN_PERSON_AND_ORGANIZATION_ASSIGNMENT ( #37, #75, ( #159 ) ) ;
#231 = DIRECTION ( 'NONE',  ( 0.000000000000000000, 0.000000000000000000, 1.000000000000000000 ) ) ;
#232 = CALENDAR_DATE ( 2022, 7, 7 ) ;
#233 = CARTESIAN_POINT ( 'NONE',  ( 0.000000000000000000, 0.000000000000000000, 7.000000000000000000 ) ) ;
#234 = APPROVAL_PERSON_ORGANIZATION ( #16, #235, #116 ) ;
#235 = APPROVAL ( #117, 'NEURÈENÝ' ) ;
#236 =( NAMED_UNIT ( * ) SI_UNIT ( $, .STERADIAN. ) SOLID_ANGLE_UNIT ( ) );
#237 = DIRECTION ( 'NONE',  ( -0.000000000000000000, -0.000000000000000000, -1.000000000000000000 ) ) ;
#238 = CIRCLE ( 'NONE', #243, 11.00000000000000000 ) ;
#239 = DIRECTION ( 'NONE',  ( 1.000000000000000000, 0.000000000000000000, -0.000000000000000000 ) ) ;
#240 = CARTESIAN_POINT ( 'NONE',  ( 0.000000000000000000, 0.000000000000000000, 7.000000000000000000 ) ) ;
#241 = ADVANCED_FACE ( 'NONE', ( #80 ), #160, .T. ) ;
#242 = ORIENTED_EDGE ( 'NONE', *, *, #30, .F. ) ;
#243 = AXIS2_PLACEMENT_3D ( 'NONE', #72, #151, #172 ) ;
#244 = DIRECTION ( 'NONE',  ( -0.000000000000000000, -0.000000000000000000, -1.000000000000000000 ) ) ;
#245 = DIRECTION ( 'NONE',  ( 1.000000000000000000, 0.000000000000000000, 0.000000000000000000 ) ) ;
#246 = ORIENTED_EDGE ( 'NONE', *, *, #119, .F. ) ;
#247 = DATE_AND_TIME ( #152, #226 ) ;
#248 = CARTESIAN_POINT ( 'NONE',  ( 8.000000000000000000, 9.797174393178825657E-16, 507.0000000000000000 ) ) ;
#249 = SECURITY_CLASSIFICATION_LEVEL ( 'unclassified' ) ;
#250 = LOCAL_TIME ( 19, 7, 12.00000000000000000, #179 ) ;
#251 =( GEOMETRIC_REPRESENTATION_CONTEXT ( 3 ) GLOBAL_UNCERTAINTY_ASSIGNED_CONTEXT ( ( #186 ) ) GLOBAL_UNIT_ASSIGNED_CONTEXT ( ( #108, #105, #236 ) ) REPRESENTATION_CONTEXT ( 'NONE', 'WORKASPACE' ) );
#252 = CC_DESIGN_PERSON_AND_ORGANIZATION_ASSIGNMENT ( #44, #106, ( #6 ) ) ;
#253 = ADVANCED_BREP_SHAPE_REPRESENTATION ( '2b1d', ( #25, #57 ), #251 ) ;
#254 = DIRECTION ( 'NONE',  ( -0.000000000000000000, -0.000000000000000000, -1.000000000000000000 ) ) ;
#255 = DIRECTION ( 'NONE',  ( 0.000000000000000000, 0.000000000000000000, 1.000000000000000000 ) ) ;
ENDSEC;
END-ISO-10303-21;
