ISO-10303-21;
HEADER;
FILE_DESCRIPTION (( 'STEP AP203' ),
    '1' );
FILE_NAME ('3dfd.STEP',
    '2022-07-07T17:57:15',
    ( '' ),
    ( '' ),
    'SwSTEP 2.0',
    'SolidWorks 2019',
    '' );
FILE_SCHEMA (( 'CONFIG_CONTROL_DESIGN' ));
ENDSEC;

DATA;
#1 = APPROVAL_PERSON_ORGANIZATION ( #23, #255, #25 ) ;
#2 = ORIENTED_EDGE ( 'NONE', *, *, #197, .F. ) ;
#3 = EDGE_LOOP ( 'NONE', ( #2, #19, #170, #139 ) ) ;
#4 = SECURITY_CLASSIFICATION ( '', '', #138 ) ;
#5 = CARTESIAN_POINT ( 'NONE',  ( 0.000000000000000000, 0.000000000000000000, 3.000000000000000000 ) ) ;
#6 = COORDINATED_UNIVERSAL_TIME_OFFSET ( 1, 0, .AHEAD. ) ;
#7 = DIRECTION ( 'NONE',  ( -1.000000000000000000, 0.000000000000000000, 0.000000000000000000 ) ) ;
#8 = FACE_OUTER_BOUND ( 'NONE', #186, .T. ) ;
#9 = DIRECTION ( 'NONE',  ( -0.000000000000000000, -0.000000000000000000, -1.000000000000000000 ) ) ;
#10 = APPROVAL_STATUS ( 'not_yet_approved' ) ;
#11 = DIRECTION ( 'NONE',  ( 0.000000000000000000, 0.000000000000000000, 1.000000000000000000 ) ) ;
#12 = CARTESIAN_POINT ( 'NONE',  ( 3.000000000000000444, 3.673940397442060361E-16, 3.000000000000000000 ) ) ;
#13 = APPLICATION_PROTOCOL_DEFINITION ( 'international standard', 'config_control_design', 1994, #89 ) ;
#14 = FACE_OUTER_BOUND ( 'NONE', #3, .T. ) ;
#15 = ADVANCED_FACE ( 'NONE', ( #48 ), #94, .T. ) ;
#16 = DIRECTION ( 'NONE',  ( 0.000000000000000000, 0.000000000000000000, 1.000000000000000000 ) ) ;
#17 =( GEOMETRIC_REPRESENTATION_CONTEXT ( 3 ) GLOBAL_UNCERTAINTY_ASSIGNED_CONTEXT ( ( #174 ) ) GLOBAL_UNIT_ASSIGNED_CONTEXT ( ( #206, #240, #124 ) ) REPRESENTATION_CONTEXT ( 'NONE', 'WORKASPACE' ) );
#18 = VERTEX_POINT ( 'NONE', #123 ) ;
#19 = ORIENTED_EDGE ( 'NONE', *, *, #60, .F. ) ;
#20 = VECTOR ( 'NONE', #81, 1000.000000000000000 ) ;
#21 = CARTESIAN_POINT ( 'NONE',  ( 0.000000000000000000, 0.000000000000000000, 0.000000000000000000 ) ) ;
#22 = DIRECTION ( 'NONE',  ( 1.000000000000000000, 0.000000000000000000, 0.000000000000000000 ) ) ;
#23 = PERSON_AND_ORGANIZATION ( #77, #221 ) ;
#24 = CYLINDRICAL_SURFACE ( 'NONE', #59, 1.500000000000000222 ) ;
#25 = APPROVAL_ROLE ( '' ) ;
#26 = DIRECTION ( 'NONE',  ( 1.000000000000000000, 0.000000000000000000, 0.000000000000000000 ) ) ;
#27 = DIRECTION ( 'NONE',  ( 1.000000000000000000, 0.000000000000000000, 0.000000000000000000 ) ) ;
#28 = CLOSED_SHELL ( 'NONE', ( #233, #55, #95, #238, #53, #79, #15 ) ) ;
#29 = PERSON_AND_ORGANIZATION ( #77, #221 ) ;
#30 = DIRECTION ( 'NONE',  ( -0.000000000000000000, -0.000000000000000000, -1.000000000000000000 ) ) ;
#31 = DIRECTION ( 'NONE',  ( -0.000000000000000000, -0.000000000000000000, -1.000000000000000000 ) ) ;
#32 = VERTEX_POINT ( 'NONE', #51 ) ;
#33 = CIRCLE ( 'NONE', #176, 3.000000000000000444 ) ;
#34 = EDGE_CURVE ( 'NONE', #18, #64, #130, .T. ) ;
#35 = LOCAL_TIME ( 19, 57, 15.00000000000000000, #245 ) ;
#36 = AXIS2_PLACEMENT_3D ( 'NONE', #45, #126, #144 ) ;
#37 = APPROVAL_PERSON_ORGANIZATION ( #163, #154, #122 ) ;
#38 = COORDINATED_UNIVERSAL_TIME_OFFSET ( 1, 0, .AHEAD. ) ;
#39 = CC_DESIGN_PERSON_AND_ORGANIZATION_ASSIGNMENT ( #44, #241, ( #215 ) ) ;
#40 = PRODUCT_DEFINITION_SHAPE ( 'NONE', 'NONE',  #132 ) ;
#41 = DIRECTION ( 'NONE',  ( 0.000000000000000000, 0.000000000000000000, 1.000000000000000000 ) ) ;
#42 = DIRECTION ( 'NONE',  ( 1.000000000000000000, 0.000000000000000000, -0.000000000000000000 ) ) ;
#43 = EDGE_LOOP ( 'NONE', ( #226, #172, #57, #93 ) ) ;
#44 = PERSON_AND_ORGANIZATION ( #77, #221 ) ;
#45 = CARTESIAN_POINT ( 'NONE',  ( 0.000000000000000000, 0.000000000000000000, 0.000000000000000000 ) ) ;
#46 = LINE ( 'NONE', #12, #236 ) ;
#47 = PERSON_AND_ORGANIZATION ( #77, #221 ) ;
#48 = FACE_OUTER_BOUND ( 'NONE', #91, .T. ) ;
#49 = AXIS2_PLACEMENT_3D ( 'NONE', #193, #16, #22 ) ;
#50 = PERSON_AND_ORGANIZATION_ROLE ( 'creator' ) ;
#51 = CARTESIAN_POINT ( 'NONE',  ( -3.000000000000000444, 0.000000000000000000, 0.000000000000000000 ) ) ;
#52 = AXIS2_PLACEMENT_3D ( 'NONE', #68, #61, #27 ) ;
#53 = ADVANCED_FACE ( 'NONE', ( #161 ), #220, .F. ) ;
#54 = AXIS2_PLACEMENT_3D ( 'NONE', #71, #244, #63 ) ;
#55 = ADVANCED_FACE ( 'NONE', ( #107 ), #242, .T. ) ;
#56 = DESIGN_CONTEXT ( 'detailed design', #89, 'design' ) ;
#57 = ORIENTED_EDGE ( 'NONE', *, *, #113, .T. ) ;
#58 = CC_DESIGN_PERSON_AND_ORGANIZATION_ASSIGNMENT ( #184, #92, ( #215 ) ) ;
#59 = AXIS2_PLACEMENT_3D ( 'NONE', #104, #30, #223 ) ;
#60 = EDGE_CURVE ( 'NONE', #196, #76, #33, .T. ) ;
#61 = DIRECTION ( 'NONE',  ( 0.000000000000000000, 0.000000000000000000, 1.000000000000000000 ) ) ;
#62 = APPROVAL_STATUS ( 'not_yet_approved' ) ;
#63 = DIRECTION ( 'NONE',  ( -1.000000000000000000, 0.000000000000000000, 0.000000000000000000 ) ) ;
#64 = VERTEX_POINT ( 'NONE', #207 ) ;
#65 = COORDINATED_UNIVERSAL_TIME_OFFSET ( 1, 0, .AHEAD. ) ;
#66 = VERTEX_POINT ( 'NONE', #70 ) ;
#67 = MANIFOLD_SOLID_BREP ( 'Pøidat vysunutím3', #28 ) ;
#68 = CARTESIAN_POINT ( 'NONE',  ( 0.000000000000000000, 0.000000000000000000, 0.000000000000000000 ) ) ;
#69 = SHAPE_DEFINITION_REPRESENTATION ( #40, #173 ) ;
#70 = CARTESIAN_POINT ( 'NONE',  ( 3.000000000000000444, 3.673940397442060361E-16, 0.000000000000000000 ) ) ;
#71 = CARTESIAN_POINT ( 'NONE',  ( 0.000000000000000000, 0.000000000000000000, 128.0000000000000000 ) ) ;
#72 = CARTESIAN_POINT ( 'NONE',  ( 0.000000000000000000, 0.000000000000000000, 0.000000000000000000 ) ) ;
#73 = ORIENTED_EDGE ( 'NONE', *, *, #235, .F. ) ;
#74 = AXIS2_PLACEMENT_3D ( 'NONE', #21, #136, #169 ) ;
#75 = EDGE_CURVE ( 'NONE', #18, #252, #88, .T. ) ;
#76 = VERTEX_POINT ( 'NONE', #205 ) ;
#77 = PERSON ( 'NEURÈENÝ', 'NEURÈENÝ', 'NEURÈENÝ', ('NEURÈENÝ'), ('NEURÈENÝ'), ('NEURÈENÝ') ) ;
#78 = ORIENTED_EDGE ( 'NONE', *, *, #208, .F. ) ;
#79 = ADVANCED_FACE ( 'NONE', ( #210 ), #24, .T. ) ;
#80 = DIRECTION ( 'NONE',  ( 0.000000000000000000, 0.000000000000000000, 1.000000000000000000 ) ) ;
#81 = DIRECTION ( 'NONE',  ( -0.000000000000000000, -0.000000000000000000, -1.000000000000000000 ) ) ;
#82 = CARTESIAN_POINT ( 'NONE',  ( -3.000000000000000444, 0.000000000000000000, 3.000000000000000000 ) ) ;
#83 = CALENDAR_DATE ( 2022, 7, 7 ) ;
#84 = DIRECTION ( 'NONE',  ( 0.000000000000000000, 0.000000000000000000, 1.000000000000000000 ) ) ;
#85 = ORIENTED_EDGE ( 'NONE', *, *, #214, .T. ) ;
#86 = CARTESIAN_POINT ( 'NONE',  ( 0.000000000000000000, 0.000000000000000000, 128.0000000000000000 ) ) ;
#87 = DATE_AND_TIME ( #117, #90 ) ;
#88 = LINE ( 'NONE', #250, #20 ) ;
#89 = APPLICATION_CONTEXT ( 'configuration controlled 3d designs of mechanical parts and assemblies' ) ;
#90 = LOCAL_TIME ( 19, 57, 15.00000000000000000, #6 ) ;
#91 = EDGE_LOOP ( 'NONE', ( #85, #155 ) ) ;
#92 = PERSON_AND_ORGANIZATION_ROLE ( 'design_supplier' ) ;
#93 = ORIENTED_EDGE ( 'NONE', *, *, #133, .T. ) ;
#94 = PLANE ( 'NONE',  #230 ) ;
#95 = ADVANCED_FACE ( 'NONE', ( #14 ), #111, .T. ) ;
#96 = AXIS2_PLACEMENT_3D ( 'NONE', #164, #9, #7 ) ;
#97 = EDGE_LOOP ( 'NONE', ( #153, #237 ) ) ;
#98 = EDGE_LOOP ( 'NONE', ( #190, #73 ) ) ;
#99 = CARTESIAN_POINT ( 'NONE',  ( 0.000000000000000000, 0.000000000000000000, 3.000000000000000000 ) ) ;
#100 = APPROVAL_PERSON_ORGANIZATION ( #47, #194, #160 ) ;
#101 = CARTESIAN_POINT ( 'NONE',  ( 0.000000000000000000, 0.000000000000000000, 128.0000000000000000 ) ) ;
#102 = DIRECTION ( 'NONE',  ( -0.000000000000000000, -0.000000000000000000, -1.000000000000000000 ) ) ;
#103 = APPROVAL_STATUS ( 'not_yet_approved' ) ;
#104 = CARTESIAN_POINT ( 'NONE',  ( 0.000000000000000000, 0.000000000000000000, 128.0000000000000000 ) ) ;
#105 = ORIENTED_EDGE ( 'NONE', *, *, #197, .T. ) ;
#106 = DATE_AND_TIME ( #228, #35 ) ;
#107 = FACE_OUTER_BOUND ( 'NONE', #199, .T. ) ;
#108 = CARTESIAN_POINT ( 'NONE',  ( -3.000000000000000444, 0.000000000000000000, 3.000000000000000000 ) ) ;
#109 = COORDINATED_UNIVERSAL_TIME_OFFSET ( 1, 0, .AHEAD. ) ;
#110 = CARTESIAN_POINT ( 'NONE',  ( 0.000000000000000000, 0.000000000000000000, 3.000000000000000000 ) ) ;
#111 = CYLINDRICAL_SURFACE ( 'NONE', #234, 3.000000000000000444 ) ;
#112 = EDGE_CURVE ( 'NONE', #32, #66, #165, .T. ) ;
#113 = EDGE_CURVE ( 'NONE', #64, #156, #185, .T. ) ;
#114 = AXIS2_PLACEMENT_3D ( 'NONE', #182, #84, #26 ) ;
#115 = CC_DESIGN_APPROVAL ( #194, ( #215 ) ) ;
#116 = ORIENTED_EDGE ( 'NONE', *, *, #235, .T. ) ;
#117 = CALENDAR_DATE ( 2022, 7, 7 ) ;
#118 = APPLICATION_CONTEXT ( 'configuration controlled 3d designs of mechanical parts and assemblies' ) ;
#119 = PLANE ( 'NONE',  #120 ) ;
#120 = AXIS2_PLACEMENT_3D ( 'NONE', #180, #224, #42 ) ;
#121 = ORIENTED_EDGE ( 'NONE', *, *, #217, .F. ) ;
#122 = APPROVAL_ROLE ( '' ) ;
#123 = CARTESIAN_POINT ( 'NONE',  ( 1.500000000000000222, 1.836970198721030181E-16, 128.0000000000000000 ) ) ;
#124 =( NAMED_UNIT ( * ) SI_UNIT ( $, .STERADIAN. ) SOLID_ANGLE_UNIT ( ) );
#125 = CALENDAR_DATE ( 2022, 7, 7 ) ;
#126 = DIRECTION ( 'NONE',  ( 0.000000000000000000, 0.000000000000000000, 1.000000000000000000 ) ) ;
#127 = CIRCLE ( 'NONE', #49, 1.500000000000000222 ) ;
#128 = PERSON_AND_ORGANIZATION_ROLE ( 'classification_officer' ) ;
#129 = DIRECTION ( 'NONE',  ( 1.000000000000000000, 0.000000000000000000, 0.000000000000000000 ) ) ;
#130 = CIRCLE ( 'NONE', #114, 1.500000000000000222 ) ;
#131 = CIRCLE ( 'NONE', #135, 1.500000000000000222 ) ;
#132 = PRODUCT_DEFINITION ( 'NEZNÁMÝ', '', #215, #56 ) ;
#133 = EDGE_CURVE ( 'NONE', #156, #252, #127, .T. ) ;
#134 = EDGE_LOOP ( 'NONE', ( #188, #78 ) ) ;
#135 = AXIS2_PLACEMENT_3D ( 'NONE', #86, #202, #183 ) ;
#136 = DIRECTION ( 'NONE',  ( 0.000000000000000000, 0.000000000000000000, 1.000000000000000000 ) ) ;
#137 = DATE_AND_TIME ( #125, #198 ) ;
#138 = SECURITY_CLASSIFICATION_LEVEL ( 'unclassified' ) ;
#139 = ORIENTED_EDGE ( 'NONE', *, *, #112, .T. ) ;
#140 = EDGE_CURVE ( 'NONE', #196, #32, #145, .T. ) ;
#141 = DIRECTION ( 'NONE',  ( 1.000000000000000000, 0.000000000000000000, 0.000000000000000000 ) ) ;
#142 = CC_DESIGN_APPROVAL ( #255, ( #132 ) ) ;
#143 = PERSON_AND_ORGANIZATION ( #77, #221 ) ;
#144 = DIRECTION ( 'NONE',  ( 1.000000000000000000, 0.000000000000000000, -0.000000000000000000 ) ) ;
#145 = LINE ( 'NONE', #108, #152 ) ;
#146 = PERSON_AND_ORGANIZATION_ROLE ( 'design_owner' ) ;
#147 = DIRECTION ( 'NONE',  ( 1.000000000000000000, 0.000000000000000000, -0.000000000000000000 ) ) ;
#148 = CARTESIAN_POINT ( 'NONE',  ( 1.500000000000000222, 1.836970198721030181E-16, 3.000000000000000000 ) ) ;
#149 = DATE_TIME_ROLE ( 'classification_date' ) ;
#150 = DIRECTION ( 'NONE',  ( 0.000000000000000000, 0.000000000000000000, 1.000000000000000000 ) ) ;
#151 = ORIENTED_EDGE ( 'NONE', *, *, #208, .T. ) ;
#152 = VECTOR ( 'NONE', #227, 1000.000000000000000 ) ;
#153 = ORIENTED_EDGE ( 'NONE', *, *, #60, .T. ) ;
#154 = APPROVAL ( #10, 'NEURÈENÝ' ) ;
#155 = ORIENTED_EDGE ( 'NONE', *, *, #34, .T. ) ;
#156 = VERTEX_POINT ( 'NONE', #189 ) ;
#157 = CC_DESIGN_DATE_AND_TIME_ASSIGNMENT ( #106, #225, ( #132 ) ) ;
#158 = DIRECTION ( 'NONE',  ( 0.000000000000000000, 0.000000000000000000, 1.000000000000000000 ) ) ;
#159 = CC_DESIGN_PERSON_AND_ORGANIZATION_ASSIGNMENT ( #29, #128, ( #4 ) ) ;
#160 = APPROVAL_ROLE ( '' ) ;
#161 = FACE_OUTER_BOUND ( 'NONE', #134, .T. ) ;
#162 = DIRECTION ( 'NONE',  ( 1.000000000000000000, 0.000000000000000000, 0.000000000000000000 ) ) ;
#163 = PERSON_AND_ORGANIZATION ( #77, #221 ) ;
#164 = CARTESIAN_POINT ( 'NONE',  ( 0.000000000000000000, 0.000000000000000000, 3.000000000000000000 ) ) ;
#165 = CIRCLE ( 'NONE', #211, 3.000000000000000444 ) ;
#166 = LOCAL_TIME ( 19, 57, 15.00000000000000000, #38 ) ;
#167 = PERSON_AND_ORGANIZATION ( #77, #221 ) ;
#168 = CARTESIAN_POINT ( 'NONE',  ( 0.000000000000000000, 0.000000000000000000, 3.000000000000000000 ) ) ;
#169 = DIRECTION ( 'NONE',  ( 1.000000000000000000, 0.000000000000000000, 0.000000000000000000 ) ) ;
#170 = ORIENTED_EDGE ( 'NONE', *, *, #140, .T. ) ;
#171 = PRODUCT_RELATED_PRODUCT_CATEGORY ( 'detail', '', ( #243 ) ) ;
#172 = ORIENTED_EDGE ( 'NONE', *, *, #214, .F. ) ;
#173 = ADVANCED_BREP_SHAPE_REPRESENTATION ( '3dfd', ( #67, #52 ), #17 ) ;
#174 = UNCERTAINTY_MEASURE_WITH_UNIT (LENGTH_MEASURE( 1.000000000000000082E-05 ), #206, 'distance_accuracy_value', 'NONE');
#175 = AXIS2_PLACEMENT_3D ( 'NONE', #99, #158, #141 ) ;
#176 = AXIS2_PLACEMENT_3D ( 'NONE', #168, #41, #246 ) ;
#177 = ORIENTED_EDGE ( 'NONE', *, *, #140, .F. ) ;
#178 = CIRCLE ( 'NONE', #195, 3.000000000000000444 ) ;
#179 = ORIENTED_EDGE ( 'NONE', *, *, #34, .F. ) ;
#180 = CARTESIAN_POINT ( 'NONE',  ( 0.000000000000000000, 0.000000000000000000, 3.000000000000000000 ) ) ;
#181 = DATE_AND_TIME ( #249, #232 ) ;
#182 = CARTESIAN_POINT ( 'NONE',  ( 0.000000000000000000, 0.000000000000000000, 128.0000000000000000 ) ) ;
#183 = DIRECTION ( 'NONE',  ( 1.000000000000000000, 0.000000000000000000, 0.000000000000000000 ) ) ;
#184 = PERSON_AND_ORGANIZATION ( #77, #221 ) ;
#185 = LINE ( 'NONE', #213, #203 ) ;
#186 = EDGE_LOOP ( 'NONE', ( #179, #254, #116, #216 ) ) ;
#187 = DATE_AND_TIME ( #83, #166 ) ;
#188 = ORIENTED_EDGE ( 'NONE', *, *, #112, .F. ) ;
#189 = CARTESIAN_POINT ( 'NONE',  ( -1.500000000000000222, 0.000000000000000000, 3.000000000000000000 ) ) ;
#190 = ORIENTED_EDGE ( 'NONE', *, *, #133, .F. ) ;
#191 = CC_DESIGN_APPROVAL ( #154, ( #4 ) ) ;
#192 = DIRECTION ( 'NONE',  ( -1.000000000000000000, 0.000000000000000000, 0.000000000000000000 ) ) ;
#193 = CARTESIAN_POINT ( 'NONE',  ( 0.000000000000000000, 0.000000000000000000, 3.000000000000000000 ) ) ;
#194 = APPROVAL ( #103, 'NEURÈENÝ' ) ;
#195 = AXIS2_PLACEMENT_3D ( 'NONE', #5, #80, #162 ) ;
#196 = VERTEX_POINT ( 'NONE', #82 ) ;
#197 = EDGE_CURVE ( 'NONE', #76, #66, #46, .T. ) ;
#198 = LOCAL_TIME ( 19, 57, 15.00000000000000000, #65 ) ;
#199 = EDGE_LOOP ( 'NONE', ( #121, #105, #151, #177 ) ) ;
#200 = CC_DESIGN_DATE_AND_TIME_ASSIGNMENT ( #87, #149, ( #4 ) ) ;
#201 = CIRCLE ( 'NONE', #175, 1.500000000000000222 ) ;
#202 = DIRECTION ( 'NONE',  ( 0.000000000000000000, 0.000000000000000000, 1.000000000000000000 ) ) ;
#203 = VECTOR ( 'NONE', #31, 1000.000000000000000 ) ;
#204 = APPLICATION_PROTOCOL_DEFINITION ( 'international standard', 'config_control_design', 1994, #118 ) ;
#205 = CARTESIAN_POINT ( 'NONE',  ( 3.000000000000000444, 3.673940397442060361E-16, 3.000000000000000000 ) ) ;
#206 =( LENGTH_UNIT ( ) NAMED_UNIT ( * ) SI_UNIT ( .MILLI., .METRE. ) );
#207 = CARTESIAN_POINT ( 'NONE',  ( -1.500000000000000222, 0.000000000000000000, 128.0000000000000000 ) ) ;
#208 = EDGE_CURVE ( 'NONE', #66, #32, #248, .T. ) ;
#209 = APPROVAL_DATE_TIME ( #187, #194 ) ;
#210 = FACE_OUTER_BOUND ( 'NONE', #43, .T. ) ;
#211 = AXIS2_PLACEMENT_3D ( 'NONE', #72, #150, #129 ) ;
#212 = CC_DESIGN_SECURITY_CLASSIFICATION ( #4, ( #215 ) ) ;
#213 = CARTESIAN_POINT ( 'NONE',  ( -1.500000000000000222, 0.000000000000000000, 128.0000000000000000 ) ) ;
#214 = EDGE_CURVE ( 'NONE', #64, #18, #131, .T. ) ;
#215 = PRODUCT_DEFINITION_FORMATION_WITH_SPECIFIED_SOURCE ( 'LIBOVOLNÝ', '', #243, .NOT_KNOWN. ) ;
#216 = ORIENTED_EDGE ( 'NONE', *, *, #113, .F. ) ;
#217 = EDGE_CURVE ( 'NONE', #76, #196, #178, .T. ) ;
#218 = APPROVAL_DATE_TIME ( #181, #154 ) ;
#219 = MECHANICAL_CONTEXT ( 'NONE', #118, 'mechanical' ) ;
#220 = PLANE ( 'NONE',  #36 ) ;
#221 = ORGANIZATION ( 'NEURÈENÝ', 'NEURÈENÝ', '' ) ;
#222 = FACE_BOUND ( 'NONE', #98, .T. ) ;
#223 = DIRECTION ( 'NONE',  ( -1.000000000000000000, 0.000000000000000000, 0.000000000000000000 ) ) ;
#224 = DIRECTION ( 'NONE',  ( 0.000000000000000000, 0.000000000000000000, 1.000000000000000000 ) ) ;
#225 = DATE_TIME_ROLE ( 'creation_date' ) ;
#226 = ORIENTED_EDGE ( 'NONE', *, *, #75, .F. ) ;
#227 = DIRECTION ( 'NONE',  ( -0.000000000000000000, -0.000000000000000000, -1.000000000000000000 ) ) ;
#228 = CALENDAR_DATE ( 2022, 7, 7 ) ;
#229 = DIRECTION ( 'NONE',  ( -0.000000000000000000, -0.000000000000000000, -1.000000000000000000 ) ) ;
#230 = AXIS2_PLACEMENT_3D ( 'NONE', #101, #11, #147 ) ;
#231 = CC_DESIGN_PERSON_AND_ORGANIZATION_ASSIGNMENT ( #143, #50, ( #132 ) ) ;
#232 = LOCAL_TIME ( 19, 57, 15.00000000000000000, #109 ) ;
#233 = ADVANCED_FACE ( 'NONE', ( #8 ), #251, .T. ) ;
#234 = AXIS2_PLACEMENT_3D ( 'NONE', #110, #229, #192 ) ;
#235 = EDGE_CURVE ( 'NONE', #252, #156, #201, .T. ) ;
#236 = VECTOR ( 'NONE', #102, 1000.000000000000000 ) ;
#237 = ORIENTED_EDGE ( 'NONE', *, *, #217, .T. ) ;
#238 = ADVANCED_FACE ( 'NONE', ( #222, #239 ), #119, .T. ) ;
#239 = FACE_OUTER_BOUND ( 'NONE', #97, .T. ) ;
#240 =( NAMED_UNIT ( * ) PLANE_ANGLE_UNIT ( ) SI_UNIT ( $, .RADIAN. ) );
#241 = PERSON_AND_ORGANIZATION_ROLE ( 'creator' ) ;
#242 = CYLINDRICAL_SURFACE ( 'NONE', #96, 3.000000000000000444 ) ;
#243 = PRODUCT ( '3dfd', '3dfd', '', ( #219 ) ) ;
#244 = DIRECTION ( 'NONE',  ( -0.000000000000000000, -0.000000000000000000, -1.000000000000000000 ) ) ;
#245 = COORDINATED_UNIVERSAL_TIME_OFFSET ( 1, 0, .AHEAD. ) ;
#246 = DIRECTION ( 'NONE',  ( 1.000000000000000000, 0.000000000000000000, 0.000000000000000000 ) ) ;
#247 = CC_DESIGN_PERSON_AND_ORGANIZATION_ASSIGNMENT ( #167, #146, ( #243 ) ) ;
#248 = CIRCLE ( 'NONE', #74, 3.000000000000000444 ) ;
#249 = CALENDAR_DATE ( 2022, 7, 7 ) ;
#250 = CARTESIAN_POINT ( 'NONE',  ( 1.500000000000000222, 1.836970198721030181E-16, 128.0000000000000000 ) ) ;
#251 = CYLINDRICAL_SURFACE ( 'NONE', #54, 1.500000000000000222 ) ;
#252 = VERTEX_POINT ( 'NONE', #148 ) ;
#253 = APPROVAL_DATE_TIME ( #137, #255 ) ;
#254 = ORIENTED_EDGE ( 'NONE', *, *, #75, .T. ) ;
#255 = APPROVAL ( #62, 'NEURÈENÝ' ) ;
ENDSEC;
END-ISO-10303-21;
