ISO-10303-21;
HEADER;
FILE_DESCRIPTION (( 'STEP AP203' ),
    '1' );
FILE_NAME ('7439.STEP',
    '2022-07-07T17:23:51',
    ( '' ),
    ( '' ),
    'SwSTEP 2.0',
    'SolidWorks 2019',
    '' );
FILE_SCHEMA (( 'CONFIG_CONTROL_DESIGN' ));
ENDSEC;

DATA;
#1 = COORDINATED_UNIVERSAL_TIME_OFFSET ( 1, 0, .AHEAD. ) ;
#2 = LOCAL_TIME ( 19, 23, 51.00000000000000000, #140 ) ;
#3 = AXIS2_PLACEMENT_3D ( 'NONE', #12, #132, #148 ) ;
#4 = COORDINATED_UNIVERSAL_TIME_OFFSET ( 1, 0, .AHEAD. ) ;
#5 = CARTESIAN_POINT ( 'NONE',  ( 0.000000000000000000, 0.000000000000000000, 0.000000000000000000 ) ) ;
#6 = PERSON_AND_ORGANIZATION ( #149, #197 ) ;
#7 = ADVANCED_FACE ( 'NONE', ( #134 ), #151, .T. ) ;
#8 = DIRECTION ( 'NONE',  ( -1.000000000000000000, 0.000000000000000000, 0.000000000000000000 ) ) ;
#9 = PERSON_AND_ORGANIZATION_ROLE ( 'design_supplier' ) ;
#10 = PERSON_AND_ORGANIZATION ( #149, #197 ) ;
#11 = CC_DESIGN_PERSON_AND_ORGANIZATION_ASSIGNMENT ( #243, #198, ( #170 ) ) ;
#12 = CARTESIAN_POINT ( 'NONE',  ( 0.000000000000000000, 0.000000000000000000, 5.000000000000000000 ) ) ;
#13 = VERTEX_POINT ( 'NONE', #37 ) ;
#14 = ORIENTED_EDGE ( 'NONE', *, *, #67, .T. ) ;
#15 = CARTESIAN_POINT ( 'NONE',  ( 0.000000000000000000, 0.000000000000000000, 0.000000000000000000 ) ) ;
#16 = APPLICATION_CONTEXT ( 'configuration controlled 3d designs of mechanical parts and assemblies' ) ;
#17 = CARTESIAN_POINT ( 'NONE',  ( 8.000000000000000000, 9.797174393178825657E-16, 0.000000000000000000 ) ) ;
#18 = FACE_OUTER_BOUND ( 'NONE', #183, .T. ) ;
#19 = DIRECTION ( 'NONE',  ( -0.000000000000000000, -0.000000000000000000, -1.000000000000000000 ) ) ;
#20 = COORDINATED_UNIVERSAL_TIME_OFFSET ( 1, 0, .AHEAD. ) ;
#21 = DIRECTION ( 'NONE',  ( 1.000000000000000000, 0.000000000000000000, 0.000000000000000000 ) ) ;
#22 = ORIENTED_EDGE ( 'NONE', *, *, #28, .T. ) ;
#23 = EDGE_CURVE ( 'NONE', #102, #56, #117, .T. ) ;
#24 = DATE_TIME_ROLE ( 'creation_date' ) ;
#25 = CARTESIAN_POINT ( 'NONE',  ( 5.250000000000000000, 6.429395695523604153E-16, 5.000000000000000000 ) ) ;
#26 = CALENDAR_DATE ( 2022, 7, 7 ) ;
#27 = PRODUCT_DEFINITION_FORMATION_WITH_SPECIFIED_SOURCE ( 'LIBOVOLNÝ', '', #170, .NOT_KNOWN. ) ;
#28 = EDGE_CURVE ( 'NONE', #235, #13, #206, .T. ) ;
#29 = CIRCLE ( 'NONE', #203, 5.250000000000000000 ) ;
#30 = EDGE_LOOP ( 'NONE', ( #231, #65 ) ) ;
#31 = APPROVAL_PERSON_ORGANIZATION ( #38, #124, #122 ) ;
#32 = CARTESIAN_POINT ( 'NONE',  ( 8.000000000000000000, 9.797174393178825657E-16, 5.000000000000000000 ) ) ;
#33 = CC_DESIGN_APPROVAL ( #229, ( #87 ) ) ;
#34 = DIRECTION ( 'NONE',  ( 1.000000000000000000, 0.000000000000000000, 0.000000000000000000 ) ) ;
#35 = CARTESIAN_POINT ( 'NONE',  ( -8.000000000000000000, 0.000000000000000000, 5.000000000000000000 ) ) ;
#36 = ORIENTED_EDGE ( 'NONE', *, *, #142, .T. ) ;
#37 = CARTESIAN_POINT ( 'NONE',  ( -5.250000000000000000, 0.000000000000000000, 5.000000000000000000 ) ) ;
#38 = PERSON_AND_ORGANIZATION ( #149, #197 ) ;
#39 = EDGE_CURVE ( 'NONE', #215, #56, #114, .T. ) ;
#40 = ORIENTED_EDGE ( 'NONE', *, *, #112, .T. ) ;
#41 = AXIS2_PLACEMENT_3D ( 'NONE', #171, #130, #233 ) ;
#42 = AXIS2_PLACEMENT_3D ( 'NONE', #178, #19, #192 ) ;
#43 = APPROVAL_DATE_TIME ( #62, #246 ) ;
#44 = ORIENTED_EDGE ( 'NONE', *, *, #39, .T. ) ;
#45 = EDGE_CURVE ( 'NONE', #56, #215, #49, .T. ) ;
#46 = LOCAL_TIME ( 19, 23, 51.00000000000000000, #20 ) ;
#47 = EDGE_LOOP ( 'NONE', ( #143, #147, #107, #196 ) ) ;
#48 = PRODUCT_DEFINITION ( 'NEZNÁMÝ', '', #27, #209 ) ;
#49 = CIRCLE ( 'NONE', #118, 8.000000000000000000 ) ;
#50 = AXIS2_PLACEMENT_3D ( 'NONE', #116, #150, #34 ) ;
#51 = ORIENTED_EDGE ( 'NONE', *, *, #139, .T. ) ;
#52 = MANIFOLD_SOLID_BREP ( 'Pøidat vysunutím3', #249 ) ;
#53 = ORIENTED_EDGE ( 'NONE', *, *, #112, .F. ) ;
#54 = UNCERTAINTY_MEASURE_WITH_UNIT (LENGTH_MEASURE( 1.000000000000000082E-05 ), #255, 'distance_accuracy_value', 'NONE');
#55 = LOCAL_TIME ( 19, 23, 51.00000000000000000, #1 ) ;
#56 = VERTEX_POINT ( 'NONE', #17 ) ;
#57 = CARTESIAN_POINT ( 'NONE',  ( 0.000000000000000000, 0.000000000000000000, 0.000000000000000000 ) ) ;
#58 = DIRECTION ( 'NONE',  ( -0.000000000000000000, -0.000000000000000000, -1.000000000000000000 ) ) ;
#59 = ORIENTED_EDGE ( 'NONE', *, *, #67, .F. ) ;
#60 = APPROVAL_ROLE ( '' ) ;
#61 = EDGE_CURVE ( 'NONE', #162, #102, #66, .T. ) ;
#62 = DATE_AND_TIME ( #245, #99 ) ;
#63 = PERSON_AND_ORGANIZATION ( #149, #197 ) ;
#64 = DIRECTION ( 'NONE',  ( 0.000000000000000000, 0.000000000000000000, 1.000000000000000000 ) ) ;
#65 = ORIENTED_EDGE ( 'NONE', *, *, #86, .F. ) ;
#66 = CIRCLE ( 'NONE', #41, 8.000000000000000000 ) ;
#67 = EDGE_CURVE ( 'NONE', #102, #162, #131, .T. ) ;
#68 = APPROVAL_PERSON_ORGANIZATION ( #10, #229, #85 ) ;
#69 = EDGE_CURVE ( 'NONE', #248, #217, #93, .T. ) ;
#70 = LINE ( 'NONE', #35, #191 ) ;
#71 = DIRECTION ( 'NONE',  ( 1.000000000000000000, 0.000000000000000000, 0.000000000000000000 ) ) ;
#72 = DIRECTION ( 'NONE',  ( -0.000000000000000000, -0.000000000000000000, -1.000000000000000000 ) ) ;
#73 = PRODUCT_RELATED_PRODUCT_CATEGORY ( 'detail', '', ( #170 ) ) ;
#74 = DIRECTION ( 'NONE',  ( 1.000000000000000000, 0.000000000000000000, 0.000000000000000000 ) ) ;
#75 = PRODUCT_DEFINITION_SHAPE ( 'NONE', 'NONE',  #48 ) ;
#76 = AXIS2_PLACEMENT_3D ( 'NONE', #5, #242, #244 ) ;
#77 = VECTOR ( 'NONE', #58, 1000.000000000000000 ) ;
#78 = COORDINATED_UNIVERSAL_TIME_OFFSET ( 1, 0, .AHEAD. ) ;
#79 = FACE_OUTER_BOUND ( 'NONE', #185, .T. ) ;
#80 = DATE_AND_TIME ( #155, #2 ) ;
#81 = DIRECTION ( 'NONE',  ( 1.000000000000000000, 0.000000000000000000, -0.000000000000000000 ) ) ;
#82 = CARTESIAN_POINT ( 'NONE',  ( -5.250000000000000000, 0.000000000000000000, 405.0000000000000000 ) ) ;
#83 = ORIENTED_EDGE ( 'NONE', *, *, #61, .T. ) ;
#84 = DATE_TIME_ROLE ( 'classification_date' ) ;
#85 = APPROVAL_ROLE ( '' ) ;
#86 = EDGE_CURVE ( 'NONE', #217, #13, #29, .T. ) ;
#87 = SECURITY_CLASSIFICATION ( '', '', #108 ) ;
#88 = ORIENTED_EDGE ( 'NONE', *, *, #225, .T. ) ;
#89 = ADVANCED_FACE ( 'NONE', ( #230 ), #212, .F. ) ;
#90 = DIRECTION ( 'NONE',  ( 0.000000000000000000, 0.000000000000000000, 1.000000000000000000 ) ) ;
#91 = ORIENTED_EDGE ( 'NONE', *, *, #23, .T. ) ;
#92 = CC_DESIGN_PERSON_AND_ORGANIZATION_ASSIGNMENT ( #201, #194, ( #48 ) ) ;
#93 = LINE ( 'NONE', #135, #222 ) ;
#94 = AXIS2_PLACEMENT_3D ( 'NONE', #173, #125, #104 ) ;
#95 = DIRECTION ( 'NONE',  ( 0.000000000000000000, 0.000000000000000000, 1.000000000000000000 ) ) ;
#96 = FACE_OUTER_BOUND ( 'NONE', #110, .T. ) ;
#97 = DATE_AND_TIME ( #26, #144 ) ;
#98 = CARTESIAN_POINT ( 'NONE',  ( 5.250000000000000000, 6.429395695523604153E-16, 405.0000000000000000 ) ) ;
#99 = LOCAL_TIME ( 19, 23, 51.00000000000000000, #78 ) ;
#100 = PERSON_AND_ORGANIZATION_ROLE ( 'classification_officer' ) ;
#101 = PLANE ( 'NONE',  #174 ) ;
#102 = VERTEX_POINT ( 'NONE', #32 ) ;
#103 = CALENDAR_DATE ( 2022, 7, 7 ) ;
#104 = DIRECTION ( 'NONE',  ( -1.000000000000000000, 0.000000000000000000, 0.000000000000000000 ) ) ;
#105 = APPROVAL_STATUS ( 'not_yet_approved' ) ;
#106 = DIRECTION ( 'NONE',  ( -0.000000000000000000, -0.000000000000000000, -1.000000000000000000 ) ) ;
#107 = ORIENTED_EDGE ( 'NONE', *, *, #86, .T. ) ;
#108 = SECURITY_CLASSIFICATION_LEVEL ( 'unclassified' ) ;
#109 = CC_DESIGN_APPROVAL ( #246, ( #27 ) ) ;
#110 = EDGE_LOOP ( 'NONE', ( #83, #14 ) ) ;
#111 = ORIENTED_EDGE ( 'NONE', *, *, #139, .F. ) ;
#112 = EDGE_CURVE ( 'NONE', #235, #248, #204, .T. ) ;
#113 = CARTESIAN_POINT ( 'NONE',  ( 0.000000000000000000, 0.000000000000000000, 405.0000000000000000 ) ) ;
#114 = CIRCLE ( 'NONE', #227, 8.000000000000000000 ) ;
#115 = ORIENTED_EDGE ( 'NONE', *, *, #23, .F. ) ;
#116 = CARTESIAN_POINT ( 'NONE',  ( 0.000000000000000000, 0.000000000000000000, 5.000000000000000000 ) ) ;
#117 = LINE ( 'NONE', #167, #164 ) ;
#118 = AXIS2_PLACEMENT_3D ( 'NONE', #252, #95, #71 ) ;
#119 =( GEOMETRIC_REPRESENTATION_CONTEXT ( 3 ) GLOBAL_UNCERTAINTY_ASSIGNED_CONTEXT ( ( #54 ) ) GLOBAL_UNIT_ASSIGNED_CONTEXT ( ( #255, #240, #219 ) ) REPRESENTATION_CONTEXT ( 'NONE', 'WORKASPACE' ) );
#120 = DIRECTION ( 'NONE',  ( 0.000000000000000000, 0.000000000000000000, 1.000000000000000000 ) ) ;
#121 = EDGE_LOOP ( 'NONE', ( #40, #88 ) ) ;
#122 = APPROVAL_ROLE ( '' ) ;
#123 = DIRECTION ( 'NONE',  ( -0.000000000000000000, -0.000000000000000000, -1.000000000000000000 ) ) ;
#124 = APPROVAL ( #137, 'NEURÈENÝ' ) ;
#125 = DIRECTION ( 'NONE',  ( -0.000000000000000000, -0.000000000000000000, -1.000000000000000000 ) ) ;
#126 = ORIENTED_EDGE ( 'NONE', *, *, #45, .T. ) ;
#127 = APPROVAL_DATE_TIME ( #239, #124 ) ;
#128 = DIRECTION ( 'NONE',  ( 0.000000000000000000, 0.000000000000000000, 1.000000000000000000 ) ) ;
#129 = ORIENTED_EDGE ( 'NONE', *, *, #69, .F. ) ;
#130 = DIRECTION ( 'NONE',  ( 0.000000000000000000, 0.000000000000000000, 1.000000000000000000 ) ) ;
#131 = CIRCLE ( 'NONE', #3, 8.000000000000000000 ) ;
#132 = DIRECTION ( 'NONE',  ( 0.000000000000000000, 0.000000000000000000, 1.000000000000000000 ) ) ;
#133 = EDGE_LOOP ( 'NONE', ( #213, #180 ) ) ;
#134 = FACE_OUTER_BOUND ( 'NONE', #121, .T. ) ;
#135 = CARTESIAN_POINT ( 'NONE',  ( 5.250000000000000000, 6.429395695523604153E-16, 405.0000000000000000 ) ) ;
#136 = DIRECTION ( 'NONE',  ( -1.000000000000000000, 0.000000000000000000, 0.000000000000000000 ) ) ;
#137 = APPROVAL_STATUS ( 'not_yet_approved' ) ;
#138 = CYLINDRICAL_SURFACE ( 'NONE', #42, 5.250000000000000000 ) ;
#139 = EDGE_CURVE ( 'NONE', #162, #215, #70, .T. ) ;
#140 = COORDINATED_UNIVERSAL_TIME_OFFSET ( 1, 0, .AHEAD. ) ;
#141 = CARTESIAN_POINT ( 'NONE',  ( 0.000000000000000000, 0.000000000000000000, 405.0000000000000000 ) ) ;
#142 = EDGE_CURVE ( 'NONE', #13, #217, #166, .T. ) ;
#143 = ORIENTED_EDGE ( 'NONE', *, *, #225, .F. ) ;
#144 = LOCAL_TIME ( 19, 23, 51.00000000000000000, #4 ) ;
#145 = DIRECTION ( 'NONE',  ( 0.000000000000000000, 0.000000000000000000, 1.000000000000000000 ) ) ;
#146 = DIRECTION ( 'NONE',  ( 0.000000000000000000, 0.000000000000000000, 1.000000000000000000 ) ) ;
#147 = ORIENTED_EDGE ( 'NONE', *, *, #69, .T. ) ;
#148 = DIRECTION ( 'NONE',  ( 1.000000000000000000, 0.000000000000000000, 0.000000000000000000 ) ) ;
#149 = PERSON ( 'NEURÈENÝ', 'NEURÈENÝ', 'NEURÈENÝ', ('NEURÈENÝ'), ('NEURÈENÝ'), ('NEURÈENÝ') ) ;
#150 = DIRECTION ( 'NONE',  ( 0.000000000000000000, 0.000000000000000000, 1.000000000000000000 ) ) ;
#151 = PLANE ( 'NONE',  #247 ) ;
#152 = ADVANCED_FACE ( 'NONE', ( #253 ), #158, .T. ) ;
#153 = PERSON_AND_ORGANIZATION_ROLE ( 'creator' ) ;
#154 = CARTESIAN_POINT ( 'NONE',  ( 0.000000000000000000, 0.000000000000000000, 5.000000000000000000 ) ) ;
#155 = CALENDAR_DATE ( 2022, 7, 7 ) ;
#156 = CC_DESIGN_PERSON_AND_ORGANIZATION_ASSIGNMENT ( #63, #9, ( #27 ) ) ;
#157 = CARTESIAN_POINT ( 'NONE',  ( -8.000000000000000000, 0.000000000000000000, 5.000000000000000000 ) ) ;
#158 = CYLINDRICAL_SURFACE ( 'NONE', #94, 5.250000000000000000 ) ;
#159 = ORIENTED_EDGE ( 'NONE', *, *, #61, .F. ) ;
#160 = AXIS2_PLACEMENT_3D ( 'NONE', #113, #90, #251 ) ;
#161 = APPROVAL_DATE_TIME ( #80, #229 ) ;
#162 = VERTEX_POINT ( 'NONE', #157 ) ;
#163 = CC_DESIGN_PERSON_AND_ORGANIZATION_ASSIGNMENT ( #182, #153, ( #27 ) ) ;
#164 = VECTOR ( 'NONE', #72, 1000.000000000000000 ) ;
#165 = CC_DESIGN_PERSON_AND_ORGANIZATION_ASSIGNMENT ( #6, #100, ( #87 ) ) ;
#166 = CIRCLE ( 'NONE', #50, 5.250000000000000000 ) ;
#167 = CARTESIAN_POINT ( 'NONE',  ( 8.000000000000000000, 9.797174393178825657E-16, 5.000000000000000000 ) ) ;
#168 = CARTESIAN_POINT ( 'NONE',  ( -5.250000000000000000, 0.000000000000000000, 405.0000000000000000 ) ) ;
#169 = DIRECTION ( 'NONE',  ( 1.000000000000000000, 0.000000000000000000, 0.000000000000000000 ) ) ;
#170 = PRODUCT ( '7439', '7439', '', ( #216 ) ) ;
#171 = CARTESIAN_POINT ( 'NONE',  ( 0.000000000000000000, 0.000000000000000000, 5.000000000000000000 ) ) ;
#172 = CARTESIAN_POINT ( 'NONE',  ( -8.000000000000000000, 0.000000000000000000, 0.000000000000000000 ) ) ;
#173 = CARTESIAN_POINT ( 'NONE',  ( 0.000000000000000000, 0.000000000000000000, 405.0000000000000000 ) ) ;
#174 = AXIS2_PLACEMENT_3D ( 'NONE', #221, #64, #81 ) ;
#175 = DATE_AND_TIME ( #103, #46 ) ;
#176 = FACE_OUTER_BOUND ( 'NONE', #47, .T. ) ;
#177 = PERSON_AND_ORGANIZATION ( #149, #197 ) ;
#178 = CARTESIAN_POINT ( 'NONE',  ( 0.000000000000000000, 0.000000000000000000, 405.0000000000000000 ) ) ;
#179 = APPROVAL_STATUS ( 'not_yet_approved' ) ;
#180 = ORIENTED_EDGE ( 'NONE', *, *, #45, .F. ) ;
#181 = AXIS2_PLACEMENT_3D ( 'NONE', #57, #128, #188 ) ;
#182 = PERSON_AND_ORGANIZATION ( #149, #197 ) ;
#183 = EDGE_LOOP ( 'NONE', ( #115, #159, #51, #44 ) ) ;
#184 = ADVANCED_FACE ( 'NONE', ( #237, #96 ), #101, .T. ) ;
#185 = EDGE_LOOP ( 'NONE', ( #59, #91, #126, #111 ) ) ;
#186 = DIRECTION ( 'NONE',  ( -0.000000000000000000, -0.000000000000000000, -1.000000000000000000 ) ) ;
#187 = CARTESIAN_POINT ( 'NONE',  ( 0.000000000000000000, 0.000000000000000000, 5.000000000000000000 ) ) ;
#188 = DIRECTION ( 'NONE',  ( 1.000000000000000000, 0.000000000000000000, -0.000000000000000000 ) ) ;
#189 = CC_DESIGN_DATE_AND_TIME_ASSIGNMENT ( #97, #84, ( #87 ) ) ;
#190 = DIRECTION ( 'NONE',  ( 1.000000000000000000, 0.000000000000000000, -0.000000000000000000 ) ) ;
#191 = VECTOR ( 'NONE', #208, 1000.000000000000000 ) ;
#192 = DIRECTION ( 'NONE',  ( -1.000000000000000000, 0.000000000000000000, 0.000000000000000000 ) ) ;
#193 = CYLINDRICAL_SURFACE ( 'NONE', #232, 8.000000000000000000 ) ;
#194 = PERSON_AND_ORGANIZATION_ROLE ( 'creator' ) ;
#195 = CARTESIAN_POINT ( 'NONE',  ( 0.000000000000000000, 0.000000000000000000, 5.000000000000000000 ) ) ;
#196 = ORIENTED_EDGE ( 'NONE', *, *, #28, .F. ) ;
#197 = ORGANIZATION ( 'NEURÈENÝ', 'NEURÈENÝ', '' ) ;
#198 = PERSON_AND_ORGANIZATION_ROLE ( 'design_owner' ) ;
#199 = APPLICATION_PROTOCOL_DEFINITION ( 'international standard', 'config_control_design', 1994, #210 ) ;
#200 = CYLINDRICAL_SURFACE ( 'NONE', #207, 8.000000000000000000 ) ;
#201 = PERSON_AND_ORGANIZATION ( #149, #197 ) ;
#202 = AXIS2_PLACEMENT_3D ( 'NONE', #141, #120, #21 ) ;
#203 = AXIS2_PLACEMENT_3D ( 'NONE', #187, #145, #74 ) ;
#204 = CIRCLE ( 'NONE', #160, 5.250000000000000000 ) ;
#205 = ADVANCED_FACE ( 'NONE', ( #79 ), #193, .T. ) ;
#206 = LINE ( 'NONE', #168, #77 ) ;
#207 = AXIS2_PLACEMENT_3D ( 'NONE', #195, #123, #136 ) ;
#208 = DIRECTION ( 'NONE',  ( -0.000000000000000000, -0.000000000000000000, -1.000000000000000000 ) ) ;
#209 = DESIGN_CONTEXT ( 'detailed design', #16, 'design' ) ;
#210 = APPLICATION_CONTEXT ( 'configuration controlled 3d designs of mechanical parts and assemblies' ) ;
#211 = ADVANCED_BREP_SHAPE_REPRESENTATION ( '7439', ( #52, #76 ), #119 ) ;
#212 = PLANE ( 'NONE',  #181 ) ;
#213 = ORIENTED_EDGE ( 'NONE', *, *, #39, .F. ) ;
#214 = CC_DESIGN_DATE_AND_TIME_ASSIGNMENT ( #175, #24, ( #48 ) ) ;
#215 = VERTEX_POINT ( 'NONE', #172 ) ;
#216 = MECHANICAL_CONTEXT ( 'NONE', #210, 'mechanical' ) ;
#217 = VERTEX_POINT ( 'NONE', #25 ) ;
#218 = CALENDAR_DATE ( 2022, 7, 7 ) ;
#219 =( NAMED_UNIT ( * ) SI_UNIT ( $, .STERADIAN. ) SOLID_ANGLE_UNIT ( ) );
#220 = EDGE_LOOP ( 'NONE', ( #129, #53, #22, #36 ) ) ;
#221 = CARTESIAN_POINT ( 'NONE',  ( 0.000000000000000000, 0.000000000000000000, 5.000000000000000000 ) ) ;
#222 = VECTOR ( 'NONE', #186, 1000.000000000000000 ) ;
#223 = APPROVAL_PERSON_ORGANIZATION ( #177, #246, #60 ) ;
#224 = APPLICATION_PROTOCOL_DEFINITION ( 'international standard', 'config_control_design', 1994, #16 ) ;
#225 = EDGE_CURVE ( 'NONE', #248, #235, #250, .T. ) ;
#226 = CC_DESIGN_SECURITY_CLASSIFICATION ( #87, ( #27 ) ) ;
#227 = AXIS2_PLACEMENT_3D ( 'NONE', #15, #254, #169 ) ;
#228 = CC_DESIGN_APPROVAL ( #124, ( #48 ) ) ;
#229 = APPROVAL ( #105, 'NEURÈENÝ' ) ;
#230 = FACE_OUTER_BOUND ( 'NONE', #133, .T. ) ;
#231 = ORIENTED_EDGE ( 'NONE', *, *, #142, .F. ) ;
#232 = AXIS2_PLACEMENT_3D ( 'NONE', #154, #106, #8 ) ;
#233 = DIRECTION ( 'NONE',  ( 1.000000000000000000, 0.000000000000000000, 0.000000000000000000 ) ) ;
#234 = ADVANCED_FACE ( 'NONE', ( #176 ), #138, .T. ) ;
#235 = VERTEX_POINT ( 'NONE', #82 ) ;
#236 = CARTESIAN_POINT ( 'NONE',  ( 0.000000000000000000, 0.000000000000000000, 405.0000000000000000 ) ) ;
#237 = FACE_BOUND ( 'NONE', #30, .T. ) ;
#238 = ADVANCED_FACE ( 'NONE', ( #18 ), #200, .T. ) ;
#239 = DATE_AND_TIME ( #218, #55 ) ;
#240 =( NAMED_UNIT ( * ) PLANE_ANGLE_UNIT ( ) SI_UNIT ( $, .RADIAN. ) );
#241 = SHAPE_DEFINITION_REPRESENTATION ( #75, #211 ) ;
#242 = DIRECTION ( 'NONE',  ( 0.000000000000000000, 0.000000000000000000, 1.000000000000000000 ) ) ;
#243 = PERSON_AND_ORGANIZATION ( #149, #197 ) ;
#244 = DIRECTION ( 'NONE',  ( 1.000000000000000000, 0.000000000000000000, 0.000000000000000000 ) ) ;
#245 = CALENDAR_DATE ( 2022, 7, 7 ) ;
#246 = APPROVAL ( #179, 'NEURÈENÝ' ) ;
#247 = AXIS2_PLACEMENT_3D ( 'NONE', #236, #146, #190 ) ;
#248 = VERTEX_POINT ( 'NONE', #98 ) ;
#249 = CLOSED_SHELL ( 'NONE', ( #234, #205, #238, #184, #89, #152, #7 ) ) ;
#250 = CIRCLE ( 'NONE', #202, 5.250000000000000000 ) ;
#251 = DIRECTION ( 'NONE',  ( 1.000000000000000000, 0.000000000000000000, 0.000000000000000000 ) ) ;
#252 = CARTESIAN_POINT ( 'NONE',  ( 0.000000000000000000, 0.000000000000000000, 0.000000000000000000 ) ) ;
#253 = FACE_OUTER_BOUND ( 'NONE', #220, .T. ) ;
#254 = DIRECTION ( 'NONE',  ( 0.000000000000000000, 0.000000000000000000, 1.000000000000000000 ) ) ;
#255 =( LENGTH_UNIT ( ) NAMED_UNIT ( * ) SI_UNIT ( .MILLI., .METRE. ) );
ENDSEC;
END-ISO-10303-21;
