ISO-10303-21;
HEADER;
FILE_DESCRIPTION (( 'STEP AP203' ),
    '1' );
FILE_NAME ('7cdb.STEP',
    '2022-07-07T17:46:36',
    ( '' ),
    ( '' ),
    'SwSTEP 2.0',
    'SolidWorks 2019',
    '' );
FILE_SCHEMA (( 'CONFIG_CONTROL_DESIGN' ));
ENDSEC;

DATA;
#1 = PERSON_AND_ORGANIZATION ( #80, #187 ) ;
#2 = AXIS2_PLACEMENT_3D ( 'NONE', #141, #224, #177 ) ;
#3 = LOCAL_TIME ( 19, 46, 36.00000000000000000, #15 ) ;
#4 = CC_DESIGN_DATE_AND_TIME_ASSIGNMENT ( #165, #143, ( #253 ) ) ;
#5 = VERTEX_POINT ( 'NONE', #223 ) ;
#6 = EDGE_LOOP ( 'NONE', ( #125, #173, #195, #246 ) ) ;
#7 = LINE ( 'NONE', #211, #238 ) ;
#8 = DIRECTION ( 'NONE',  ( -0.000000000000000000, -0.000000000000000000, -1.000000000000000000 ) ) ;
#9 = CARTESIAN_POINT ( 'NONE',  ( 0.000000000000000000, 0.000000000000000000, 3.000000000000000000 ) ) ;
#10 = VERTEX_POINT ( 'NONE', #206 ) ;
#11 = DESIGN_CONTEXT ( 'detailed design', #54, 'design' ) ;
#12 = PLANE ( 'NONE',  #250 ) ;
#13 = ORIENTED_EDGE ( 'NONE', *, *, #103, .T. ) ;
#14 = ADVANCED_FACE ( 'NONE', ( #113 ), #53, .T. ) ;
#15 = COORDINATED_UNIVERSAL_TIME_OFFSET ( 1, 0, .AHEAD. ) ;
#16 = CARTESIAN_POINT ( 'NONE',  ( -2.500000000000000000, 0.000000000000000000, 403.0000000000000000 ) ) ;
#17 = ORIENTED_EDGE ( 'NONE', *, *, #21, .F. ) ;
#18 = APPROVAL_DATE_TIME ( #216, #27 ) ;
#19 = CARTESIAN_POINT ( 'NONE',  ( 0.000000000000000000, 0.000000000000000000, 403.0000000000000000 ) ) ;
#20 = AXIS2_PLACEMENT_3D ( 'NONE', #97, #52, #119 ) ;
#21 = EDGE_CURVE ( 'NONE', #5, #159, #234, .T. ) ;
#22 = ORIENTED_EDGE ( 'NONE', *, *, #35, .T. ) ;
#23 = AXIS2_PLACEMENT_3D ( 'NONE', #107, #241, #181 ) ;
#24 = EDGE_CURVE ( 'NONE', #159, #5, #121, .T. ) ;
#25 = CC_DESIGN_APPROVAL ( #27, ( #253 ) ) ;
#26 = CARTESIAN_POINT ( 'NONE',  ( 0.000000000000000000, 0.000000000000000000, 3.000000000000000000 ) ) ;
#27 = APPROVAL ( #185, 'NEURÈENÝ' ) ;
#28 = DIRECTION ( 'NONE',  ( -0.000000000000000000, -0.000000000000000000, -1.000000000000000000 ) ) ;
#29 = DIRECTION ( 'NONE',  ( -1.000000000000000000, 0.000000000000000000, 0.000000000000000000 ) ) ;
#30 = CIRCLE ( 'NONE', #65, 5.000000000000000000 ) ;
#31 = CARTESIAN_POINT ( 'NONE',  ( 2.500000000000000000, 3.061616997868383141E-16, 3.000000000000000000 ) ) ;
#32 = ORIENTED_EDGE ( 'NONE', *, *, #112, .F. ) ;
#33 = DIRECTION ( 'NONE',  ( 0.000000000000000000, 0.000000000000000000, 1.000000000000000000 ) ) ;
#34 = DIRECTION ( 'NONE',  ( 1.000000000000000000, 0.000000000000000000, 0.000000000000000000 ) ) ;
#35 = EDGE_CURVE ( 'NONE', #228, #142, #30, .T. ) ;
#36 =( NAMED_UNIT ( * ) SI_UNIT ( $, .STERADIAN. ) SOLID_ANGLE_UNIT ( ) );
#37 = DIRECTION ( 'NONE',  ( 0.000000000000000000, 0.000000000000000000, 1.000000000000000000 ) ) ;
#38 = DIRECTION ( 'NONE',  ( -0.000000000000000000, -0.000000000000000000, -1.000000000000000000 ) ) ;
#39 = VECTOR ( 'NONE', #207, 1000.000000000000000 ) ;
#40 = DIRECTION ( 'NONE',  ( 1.000000000000000000, 0.000000000000000000, 0.000000000000000000 ) ) ;
#41 =( LENGTH_UNIT ( ) NAMED_UNIT ( * ) SI_UNIT ( .MILLI., .METRE. ) );
#42 = APPROVAL_PERSON_ORGANIZATION ( #62, #27, #118 ) ;
#43 = PERSON_AND_ORGANIZATION_ROLE ( 'creator' ) ;
#44 = APPLICATION_PROTOCOL_DEFINITION ( 'international standard', 'config_control_design', 1994, #54 ) ;
#45 = CC_DESIGN_APPROVAL ( #150, ( #196 ) ) ;
#46 = ORIENTED_EDGE ( 'NONE', *, *, #24, .F. ) ;
#47 = CC_DESIGN_PERSON_AND_ORGANIZATION_ASSIGNMENT ( #148, #120, ( #83 ) ) ;
#48 = EDGE_CURVE ( 'NONE', #242, #10, #110, .T. ) ;
#49 = EDGE_LOOP ( 'NONE', ( #92, #72 ) ) ;
#50 = DIRECTION ( 'NONE',  ( -1.000000000000000000, 0.000000000000000000, 0.000000000000000000 ) ) ;
#51 = ORIENTED_EDGE ( 'NONE', *, *, #136, .T. ) ;
#52 = DIRECTION ( 'NONE',  ( 0.000000000000000000, 0.000000000000000000, 1.000000000000000000 ) ) ;
#53 = CYLINDRICAL_SURFACE ( 'NONE', #192, 2.500000000000000000 ) ;
#54 = APPLICATION_CONTEXT ( 'configuration controlled 3d designs of mechanical parts and assemblies' ) ;
#55 = APPLICATION_PROTOCOL_DEFINITION ( 'international standard', 'config_control_design', 1994, #154 ) ;
#56 = CARTESIAN_POINT ( 'NONE',  ( 2.500000000000000000, 3.061616997868383141E-16, 403.0000000000000000 ) ) ;
#57 = ADVANCED_FACE ( 'NONE', ( #115 ), #138, .T. ) ;
#58 = EDGE_LOOP ( 'NONE', ( #17, #152, #22, #90 ) ) ;
#59 = COORDINATED_UNIVERSAL_TIME_OFFSET ( 1, 0, .AHEAD. ) ;
#60 = DIRECTION ( 'NONE',  ( 0.000000000000000000, 0.000000000000000000, 1.000000000000000000 ) ) ;
#61 = CARTESIAN_POINT ( 'NONE',  ( 0.000000000000000000, 0.000000000000000000, 0.000000000000000000 ) ) ;
#62 = PERSON_AND_ORGANIZATION ( #80, #187 ) ;
#63 = MANIFOLD_SOLID_BREP ( 'Pøidat vysunutím3', #104 ) ;
#64 = APPROVAL_PERSON_ORGANIZATION ( #210, #190, #233 ) ;
#65 = AXIS2_PLACEMENT_3D ( 'NONE', #145, #68, #162 ) ;
#66 = EDGE_CURVE ( 'NONE', #87, #10, #102, .T. ) ;
#67 = EDGE_CURVE ( 'NONE', #159, #142, #7, .T. ) ;
#68 = DIRECTION ( 'NONE',  ( 0.000000000000000000, 0.000000000000000000, 1.000000000000000000 ) ) ;
#69 = DIRECTION ( 'NONE',  ( 0.000000000000000000, 0.000000000000000000, 1.000000000000000000 ) ) ;
#70 = EDGE_LOOP ( 'NONE', ( #232, #13, #176, #108 ) ) ;
#71 = FACE_OUTER_BOUND ( 'NONE', #70, .T. ) ;
#72 = ORIENTED_EDGE ( 'NONE', *, *, #21, .T. ) ;
#73 = CALENDAR_DATE ( 2022, 7, 7 ) ;
#74 = DIRECTION ( 'NONE',  ( -0.000000000000000000, -0.000000000000000000, -1.000000000000000000 ) ) ;
#75 = CIRCLE ( 'NONE', #218, 2.500000000000000000 ) ;
#76 = DIRECTION ( 'NONE',  ( 0.000000000000000000, 0.000000000000000000, 1.000000000000000000 ) ) ;
#77 = DIRECTION ( 'NONE',  ( -1.000000000000000000, 0.000000000000000000, 0.000000000000000000 ) ) ;
#78 = PERSON_AND_ORGANIZATION_ROLE ( 'design_owner' ) ;
#79 = CALENDAR_DATE ( 2022, 7, 7 ) ;
#80 = PERSON ( 'NEURÈENÝ', 'NEURÈENÝ', 'NEURÈENÝ', ('NEURÈENÝ'), ('NEURÈENÝ'), ('NEURÈENÝ') ) ;
#81 = UNCERTAINTY_MEASURE_WITH_UNIT (LENGTH_MEASURE( 1.000000000000000082E-05 ), #41, 'distance_accuracy_value', 'NONE');
#82 = CC_DESIGN_PERSON_AND_ORGANIZATION_ASSIGNMENT ( #101, #255, ( #196 ) ) ;
#83 = PRODUCT_DEFINITION_FORMATION_WITH_SPECIFIED_SOURCE ( 'LIBOVOLNÝ', '', #88, .NOT_KNOWN. ) ;
#84 = EDGE_CURVE ( 'NONE', #217, #242, #85, .T. ) ;
#85 = CIRCLE ( 'NONE', #123, 2.500000000000000000 ) ;
#86 = APPROVAL_STATUS ( 'not_yet_approved' ) ;
#87 = VERTEX_POINT ( 'NONE', #31 ) ;
#88 = PRODUCT ( '7cdb', '7cdb', '', ( #134 ) ) ;
#89 = FACE_OUTER_BOUND ( 'NONE', #131, .T. ) ;
#90 = ORIENTED_EDGE ( 'NONE', *, *, #67, .F. ) ;
#91 = PLANE ( 'NONE',  #236 ) ;
#92 = ORIENTED_EDGE ( 'NONE', *, *, #24, .T. ) ;
#93 = CARTESIAN_POINT ( 'NONE',  ( 0.000000000000000000, 0.000000000000000000, 3.000000000000000000 ) ) ;
#94 = AXIS2_PLACEMENT_3D ( 'NONE', #178, #157, #244 ) ;
#95 = EDGE_LOOP ( 'NONE', ( #215, #209 ) ) ;
#96 = APPROVAL_STATUS ( 'not_yet_approved' ) ;
#97 = CARTESIAN_POINT ( 'NONE',  ( 0.000000000000000000, 0.000000000000000000, 403.0000000000000000 ) ) ;
#98 = LOCAL_TIME ( 19, 46, 36.00000000000000000, #105 ) ;
#99 = COORDINATED_UNIVERSAL_TIME_OFFSET ( 1, 0, .AHEAD. ) ;
#100 = ADVANCED_FACE ( 'NONE', ( #89 ), #227, .T. ) ;
#101 = PERSON_AND_ORGANIZATION ( #80, #187 ) ;
#102 = CIRCLE ( 'NONE', #94, 2.500000000000000000 ) ;
#103 = EDGE_CURVE ( 'NONE', #217, #87, #188, .T. ) ;
#104 = CLOSED_SHELL ( 'NONE', ( #239, #208, #57, #184, #220, #14, #100 ) ) ;
#105 = COORDINATED_UNIVERSAL_TIME_OFFSET ( 1, 0, .AHEAD. ) ;
#106 = CIRCLE ( 'NONE', #2, 2.500000000000000000 ) ;
#107 = CARTESIAN_POINT ( 'NONE',  ( 0.000000000000000000, 0.000000000000000000, 3.000000000000000000 ) ) ;
#108 = ORIENTED_EDGE ( 'NONE', *, *, #48, .F. ) ;
#109 = CARTESIAN_POINT ( 'NONE',  ( -5.000000000000000000, 0.000000000000000000, 3.000000000000000000 ) ) ;
#110 = LINE ( 'NONE', #129, #197 ) ;
#111 = FACE_BOUND ( 'NONE', #95, .T. ) ;
#112 = EDGE_CURVE ( 'NONE', #5, #228, #128, .T. ) ;
#113 = FACE_OUTER_BOUND ( 'NONE', #6, .T. ) ;
#114 = DIRECTION ( 'NONE',  ( 1.000000000000000000, 0.000000000000000000, 0.000000000000000000 ) ) ;
#115 = FACE_OUTER_BOUND ( 'NONE', #140, .T. ) ;
#116 = DIRECTION ( 'NONE',  ( 1.000000000000000000, 0.000000000000000000, -0.000000000000000000 ) ) ;
#117 = ORIENTED_EDGE ( 'NONE', *, *, #167, .T. ) ;
#118 = APPROVAL_ROLE ( '' ) ;
#119 = DIRECTION ( 'NONE',  ( 1.000000000000000000, 0.000000000000000000, -0.000000000000000000 ) ) ;
#120 = PERSON_AND_ORGANIZATION_ROLE ( 'design_supplier' ) ;
#121 = CIRCLE ( 'NONE', #23, 5.000000000000000000 ) ;
#122 = CC_DESIGN_PERSON_AND_ORGANIZATION_ASSIGNMENT ( #1, #135, ( #253 ) ) ;
#123 = AXIS2_PLACEMENT_3D ( 'NONE', #205, #60, #126 ) ;
#124 = DATE_AND_TIME ( #240, #98 ) ;
#125 = ORIENTED_EDGE ( 'NONE', *, *, #103, .F. ) ;
#126 = DIRECTION ( 'NONE',  ( 1.000000000000000000, 0.000000000000000000, 0.000000000000000000 ) ) ;
#127 = ORIENTED_EDGE ( 'NONE', *, *, #67, .T. ) ;
#128 = LINE ( 'NONE', #214, #39 ) ;
#129 = CARTESIAN_POINT ( 'NONE',  ( -2.500000000000000000, 0.000000000000000000, 403.0000000000000000 ) ) ;
#130 = CARTESIAN_POINT ( 'NONE',  ( 5.000000000000000000, 6.123233995736766282E-16, 0.000000000000000000 ) ) ;
#131 = EDGE_LOOP ( 'NONE', ( #117, #183 ) ) ;
#132 = APPROVAL_DATE_TIME ( #146, #190 ) ;
#133 = CARTESIAN_POINT ( 'NONE',  ( 0.000000000000000000, 0.000000000000000000, 3.000000000000000000 ) ) ;
#134 = MECHANICAL_CONTEXT ( 'NONE', #154, 'mechanical' ) ;
#135 = PERSON_AND_ORGANIZATION_ROLE ( 'creator' ) ;
#136 = EDGE_CURVE ( 'NONE', #142, #228, #200, .T. ) ;
#137 = AXIS2_PLACEMENT_3D ( 'NONE', #133, #164, #50 ) ;
#138 = CYLINDRICAL_SURFACE ( 'NONE', #204, 5.000000000000000000 ) ;
#139 = CYLINDRICAL_SURFACE ( 'NONE', #168, 2.500000000000000000 ) ;
#140 = EDGE_LOOP ( 'NONE', ( #32, #46, #127, #51 ) ) ;
#141 = CARTESIAN_POINT ( 'NONE',  ( 0.000000000000000000, 0.000000000000000000, 403.0000000000000000 ) ) ;
#142 = VERTEX_POINT ( 'NONE', #182 ) ;
#143 = DATE_TIME_ROLE ( 'creation_date' ) ;
#144 = CARTESIAN_POINT ( 'NONE',  ( 2.500000000000000000, 3.061616997868383141E-16, 403.0000000000000000 ) ) ;
#145 = CARTESIAN_POINT ( 'NONE',  ( 0.000000000000000000, 0.000000000000000000, 0.000000000000000000 ) ) ;
#146 = DATE_AND_TIME ( #252, #222 ) ;
#147 = FACE_OUTER_BOUND ( 'NONE', #49, .T. ) ;
#148 = PERSON_AND_ORGANIZATION ( #80, #187 ) ;
#149 = DATE_AND_TIME ( #79, #172 ) ;
#150 = APPROVAL ( #86, 'NEURÈENÝ' ) ;
#151 = VECTOR ( 'NONE', #74, 1000.000000000000000 ) ;
#152 = ORIENTED_EDGE ( 'NONE', *, *, #112, .T. ) ;
#153 = EDGE_CURVE ( 'NONE', #10, #87, #75, .T. ) ;
#154 = APPLICATION_CONTEXT ( 'configuration controlled 3d designs of mechanical parts and assemblies' ) ;
#155 = ORIENTED_EDGE ( 'NONE', *, *, #136, .F. ) ;
#156 = CYLINDRICAL_SURFACE ( 'NONE', #137, 5.000000000000000000 ) ;
#157 = DIRECTION ( 'NONE',  ( 0.000000000000000000, 0.000000000000000000, 1.000000000000000000 ) ) ;
#158 = CARTESIAN_POINT ( 'NONE',  ( 0.000000000000000000, 0.000000000000000000, 0.000000000000000000 ) ) ;
#159 = VERTEX_POINT ( 'NONE', #109 ) ;
#160 = PERSON_AND_ORGANIZATION ( #80, #187 ) ;
#161 = DIRECTION ( 'NONE',  ( 0.000000000000000000, 0.000000000000000000, 1.000000000000000000 ) ) ;
#162 = DIRECTION ( 'NONE',  ( 1.000000000000000000, 0.000000000000000000, 0.000000000000000000 ) ) ;
#163 = LOCAL_TIME ( 19, 46, 36.00000000000000000, #99 ) ;
#164 = DIRECTION ( 'NONE',  ( -0.000000000000000000, -0.000000000000000000, -1.000000000000000000 ) ) ;
#165 = DATE_AND_TIME ( #73, #163 ) ;
#166 = COORDINATED_UNIVERSAL_TIME_OFFSET ( 1, 0, .AHEAD. ) ;
#167 = EDGE_CURVE ( 'NONE', #242, #217, #106, .T. ) ;
#168 = AXIS2_PLACEMENT_3D ( 'NONE', #19, #186, #77 ) ;
#169 = ADVANCED_BREP_SHAPE_REPRESENTATION ( '7cdb', ( #63, #251 ), #229 ) ;
#170 = AXIS2_PLACEMENT_3D ( 'NONE', #158, #33, #180 ) ;
#171 = SHAPE_DEFINITION_REPRESENTATION ( #198, #169 ) ;
#172 = LOCAL_TIME ( 19, 46, 36.00000000000000000, #166 ) ;
#173 = ORIENTED_EDGE ( 'NONE', *, *, #167, .F. ) ;
#174 = CARTESIAN_POINT ( 'NONE',  ( 0.000000000000000000, 0.000000000000000000, 3.000000000000000000 ) ) ;
#175 = APPROVAL_ROLE ( '' ) ;
#176 = ORIENTED_EDGE ( 'NONE', *, *, #66, .T. ) ;
#177 = DIRECTION ( 'NONE',  ( 1.000000000000000000, 0.000000000000000000, 0.000000000000000000 ) ) ;
#178 = CARTESIAN_POINT ( 'NONE',  ( 0.000000000000000000, 0.000000000000000000, 3.000000000000000000 ) ) ;
#179 = APPROVAL_PERSON_ORGANIZATION ( #191, #150, #175 ) ;
#180 = DIRECTION ( 'NONE',  ( 1.000000000000000000, 0.000000000000000000, 0.000000000000000000 ) ) ;
#181 = DIRECTION ( 'NONE',  ( 1.000000000000000000, 0.000000000000000000, 0.000000000000000000 ) ) ;
#182 = CARTESIAN_POINT ( 'NONE',  ( -5.000000000000000000, 0.000000000000000000, 0.000000000000000000 ) ) ;
#183 = ORIENTED_EDGE ( 'NONE', *, *, #84, .T. ) ;
#184 = ADVANCED_FACE ( 'NONE', ( #111, #147 ), #12, .T. ) ;
#185 = APPROVAL_STATUS ( 'not_yet_approved' ) ;
#186 = DIRECTION ( 'NONE',  ( -0.000000000000000000, -0.000000000000000000, -1.000000000000000000 ) ) ;
#187 = ORGANIZATION ( 'NEURÈENÝ', 'NEURÈENÝ', '' ) ;
#188 = LINE ( 'NONE', #56, #151 ) ;
#189 = SECURITY_CLASSIFICATION_LEVEL ( 'unclassified' ) ;
#190 = APPROVAL ( #96, 'NEURÈENÝ' ) ;
#191 = PERSON_AND_ORGANIZATION ( #80, #187 ) ;
#192 = AXIS2_PLACEMENT_3D ( 'NONE', #203, #38, #249 ) ;
#193 = AXIS2_PLACEMENT_3D ( 'NONE', #26, #76, #34 ) ;
#194 = PRODUCT_RELATED_PRODUCT_CATEGORY ( 'detail', '', ( #88 ) ) ;
#195 = ORIENTED_EDGE ( 'NONE', *, *, #48, .T. ) ;
#196 = SECURITY_CLASSIFICATION ( '', '', #189 ) ;
#197 = VECTOR ( 'NONE', #212, 1000.000000000000000 ) ;
#198 = PRODUCT_DEFINITION_SHAPE ( 'NONE', 'NONE',  #253 ) ;
#199 = ORIENTED_EDGE ( 'NONE', *, *, #35, .F. ) ;
#200 = CIRCLE ( 'NONE', #170, 5.000000000000000000 ) ;
#201 = CC_DESIGN_APPROVAL ( #190, ( #83 ) ) ;
#202 = APPROVAL_DATE_TIME ( #124, #150 ) ;
#203 = CARTESIAN_POINT ( 'NONE',  ( 0.000000000000000000, 0.000000000000000000, 403.0000000000000000 ) ) ;
#204 = AXIS2_PLACEMENT_3D ( 'NONE', #174, #8, #29 ) ;
#205 = CARTESIAN_POINT ( 'NONE',  ( 0.000000000000000000, 0.000000000000000000, 403.0000000000000000 ) ) ;
#206 = CARTESIAN_POINT ( 'NONE',  ( -2.500000000000000000, 0.000000000000000000, 3.000000000000000000 ) ) ;
#207 = DIRECTION ( 'NONE',  ( -0.000000000000000000, -0.000000000000000000, -1.000000000000000000 ) ) ;
#208 = ADVANCED_FACE ( 'NONE', ( #248 ), #156, .T. ) ;
#209 = ORIENTED_EDGE ( 'NONE', *, *, #66, .F. ) ;
#210 = PERSON_AND_ORGANIZATION ( #80, #187 ) ;
#211 = CARTESIAN_POINT ( 'NONE',  ( -5.000000000000000000, 0.000000000000000000, 3.000000000000000000 ) ) ;
#212 = DIRECTION ( 'NONE',  ( -0.000000000000000000, -0.000000000000000000, -1.000000000000000000 ) ) ;
#213 =( NAMED_UNIT ( * ) PLANE_ANGLE_UNIT ( ) SI_UNIT ( $, .RADIAN. ) );
#214 = CARTESIAN_POINT ( 'NONE',  ( 5.000000000000000000, 6.123233995736766282E-16, 3.000000000000000000 ) ) ;
#215 = ORIENTED_EDGE ( 'NONE', *, *, #153, .F. ) ;
#216 = DATE_AND_TIME ( #247, #3 ) ;
#217 = VERTEX_POINT ( 'NONE', #144 ) ;
#218 = AXIS2_PLACEMENT_3D ( 'NONE', #9, #69, #114 ) ;
#219 = CC_DESIGN_SECURITY_CLASSIFICATION ( #196, ( #83 ) ) ;
#220 = ADVANCED_FACE ( 'NONE', ( #243 ), #91, .F. ) ;
#221 = CC_DESIGN_DATE_AND_TIME_ASSIGNMENT ( #149, #235, ( #196 ) ) ;
#222 = LOCAL_TIME ( 19, 46, 36.00000000000000000, #59 ) ;
#223 = CARTESIAN_POINT ( 'NONE',  ( 5.000000000000000000, 6.123233995736766282E-16, 3.000000000000000000 ) ) ;
#224 = DIRECTION ( 'NONE',  ( 0.000000000000000000, 0.000000000000000000, 1.000000000000000000 ) ) ;
#225 = EDGE_LOOP ( 'NONE', ( #155, #199 ) ) ;
#226 = CC_DESIGN_PERSON_AND_ORGANIZATION_ASSIGNMENT ( #254, #43, ( #83 ) ) ;
#227 = PLANE ( 'NONE',  #20 ) ;
#228 = VERTEX_POINT ( 'NONE', #130 ) ;
#229 =( GEOMETRIC_REPRESENTATION_CONTEXT ( 3 ) GLOBAL_UNCERTAINTY_ASSIGNED_CONTEXT ( ( #81 ) ) GLOBAL_UNIT_ASSIGNED_CONTEXT ( ( #41, #213, #36 ) ) REPRESENTATION_CONTEXT ( 'NONE', 'WORKASPACE' ) );
#230 = DIRECTION ( 'NONE',  ( 0.000000000000000000, 0.000000000000000000, 1.000000000000000000 ) ) ;
#231 = CARTESIAN_POINT ( 'NONE',  ( 0.000000000000000000, 0.000000000000000000, 0.000000000000000000 ) ) ;
#232 = ORIENTED_EDGE ( 'NONE', *, *, #84, .F. ) ;
#233 = APPROVAL_ROLE ( '' ) ;
#234 = CIRCLE ( 'NONE', #193, 5.000000000000000000 ) ;
#235 = DATE_TIME_ROLE ( 'classification_date' ) ;
#236 = AXIS2_PLACEMENT_3D ( 'NONE', #231, #37, #245 ) ;
#237 = CC_DESIGN_PERSON_AND_ORGANIZATION_ASSIGNMENT ( #160, #78, ( #88 ) ) ;
#238 = VECTOR ( 'NONE', #28, 1000.000000000000000 ) ;
#239 = ADVANCED_FACE ( 'NONE', ( #71 ), #139, .T. ) ;
#240 = CALENDAR_DATE ( 2022, 7, 7 ) ;
#241 = DIRECTION ( 'NONE',  ( 0.000000000000000000, 0.000000000000000000, 1.000000000000000000 ) ) ;
#242 = VERTEX_POINT ( 'NONE', #16 ) ;
#243 = FACE_OUTER_BOUND ( 'NONE', #225, .T. ) ;
#244 = DIRECTION ( 'NONE',  ( 1.000000000000000000, 0.000000000000000000, 0.000000000000000000 ) ) ;
#245 = DIRECTION ( 'NONE',  ( 1.000000000000000000, 0.000000000000000000, -0.000000000000000000 ) ) ;
#246 = ORIENTED_EDGE ( 'NONE', *, *, #153, .T. ) ;
#247 = CALENDAR_DATE ( 2022, 7, 7 ) ;
#248 = FACE_OUTER_BOUND ( 'NONE', #58, .T. ) ;
#249 = DIRECTION ( 'NONE',  ( -1.000000000000000000, 0.000000000000000000, 0.000000000000000000 ) ) ;
#250 = AXIS2_PLACEMENT_3D ( 'NONE', #93, #161, #116 ) ;
#251 = AXIS2_PLACEMENT_3D ( 'NONE', #61, #230, #40 ) ;
#252 = CALENDAR_DATE ( 2022, 7, 7 ) ;
#253 = PRODUCT_DEFINITION ( 'NEZNÁMÝ', '', #83, #11 ) ;
#254 = PERSON_AND_ORGANIZATION ( #80, #187 ) ;
#255 = PERSON_AND_ORGANIZATION_ROLE ( 'classification_officer' ) ;
ENDSEC;
END-ISO-10303-21;
