ISO-10303-21;
HEADER;
FILE_DESCRIPTION (( 'STEP AP203' ),
    '1' );
FILE_NAME ('26aa.STEP',
    '2022-07-07T17:41:00',
    ( '' ),
    ( '' ),
    'SwSTEP 2.0',
    'SolidWorks 2019',
    '' );
FILE_SCHEMA (( 'CONFIG_CONTROL_DESIGN' ));
ENDSEC;

DATA;
#1 = CALENDAR_DATE ( 2022, 7, 7 ) ;
#2 = EDGE_CURVE ( 'NONE', #168, #228, #164, .T. ) ;
#3 = CARTESIAN_POINT ( 'NONE',  ( 0.000000000000000000, 0.000000000000000000, 165.0000000000000000 ) ) ;
#4 = CARTESIAN_POINT ( 'NONE',  ( 0.000000000000000000, 0.000000000000000000, 5.000000000000000000 ) ) ;
#5 = ORIENTED_EDGE ( 'NONE', *, *, #86, .F. ) ;
#6 = CARTESIAN_POINT ( 'NONE',  ( -3.000000000000000444, 0.000000000000000000, 5.000000000000000000 ) ) ;
#7 = VECTOR ( 'NONE', #67, 1000.000000000000000 ) ;
#8 = CARTESIAN_POINT ( 'NONE',  ( 0.000000000000000000, 0.000000000000000000, 165.0000000000000000 ) ) ;
#9 = EDGE_CURVE ( 'NONE', #91, #92, #225, .T. ) ;
#10 = DIRECTION ( 'NONE',  ( 0.000000000000000000, 0.000000000000000000, 1.000000000000000000 ) ) ;
#11 = DIRECTION ( 'NONE',  ( -0.000000000000000000, -0.000000000000000000, -1.000000000000000000 ) ) ;
#12 = CARTESIAN_POINT ( 'NONE',  ( -6.000000000000000888, 0.000000000000000000, 5.000000000000000000 ) ) ;
#13 = PERSON_AND_ORGANIZATION ( #180, #70 ) ;
#14 = PERSON_AND_ORGANIZATION ( #180, #70 ) ;
#15 = CARTESIAN_POINT ( 'NONE',  ( 0.000000000000000000, 0.000000000000000000, 5.000000000000000000 ) ) ;
#16 = CC_DESIGN_PERSON_AND_ORGANIZATION_ASSIGNMENT ( #210, #34, ( #212 ) ) ;
#17 = DATE_AND_TIME ( #114, #145 ) ;
#18 = CYLINDRICAL_SURFACE ( 'NONE', #126, 3.000000000000000444 ) ;
#19 = AXIS2_PLACEMENT_3D ( 'NONE', #8, #130, #110 ) ;
#20 = ORIENTED_EDGE ( 'NONE', *, *, #184, .F. ) ;
#21 = AXIS2_PLACEMENT_3D ( 'NONE', #137, #62, #101 ) ;
#22 = DIRECTION ( 'NONE',  ( 1.000000000000000000, 0.000000000000000000, 0.000000000000000000 ) ) ;
#23 = CARTESIAN_POINT ( 'NONE',  ( 6.000000000000000888, 7.347880794884120722E-16, 5.000000000000000000 ) ) ;
#24 = DIRECTION ( 'NONE',  ( -0.000000000000000000, -0.000000000000000000, -1.000000000000000000 ) ) ;
#25 = CC_DESIGN_PERSON_AND_ORGANIZATION_ASSIGNMENT ( #78, #190, ( #212 ) ) ;
#26 = VERTEX_POINT ( 'NONE', #108 ) ;
#27 = AXIS2_PLACEMENT_3D ( 'NONE', #139, #160, #218 ) ;
#28 = EDGE_LOOP ( 'NONE', ( #226, #88, #51, #104 ) ) ;
#29 = CARTESIAN_POINT ( 'NONE',  ( 0.000000000000000000, 0.000000000000000000, 0.000000000000000000 ) ) ;
#30 = PRODUCT_DEFINITION_SHAPE ( 'NONE', 'NONE',  #217 ) ;
#31 = LOCAL_TIME ( 19, 41, 0.000000000000000000, #116 ) ;
#32 =( LENGTH_UNIT ( ) NAMED_UNIT ( * ) SI_UNIT ( .MILLI., .METRE. ) );
#33 = ADVANCED_FACE ( 'NONE', ( #90 ), #245, .T. ) ;
#34 = PERSON_AND_ORGANIZATION_ROLE ( 'creator' ) ;
#35 = APPROVAL_DATE_TIME ( #97, #146 ) ;
#36 = COORDINATED_UNIVERSAL_TIME_OFFSET ( 1, 0, .AHEAD. ) ;
#37 = DIRECTION ( 'NONE',  ( -0.000000000000000000, -0.000000000000000000, -1.000000000000000000 ) ) ;
#38 = EDGE_CURVE ( 'NONE', #228, #168, #69, .T. ) ;
#39 = COORDINATED_UNIVERSAL_TIME_OFFSET ( 1, 0, .AHEAD. ) ;
#40 = DIRECTION ( 'NONE',  ( 0.000000000000000000, 0.000000000000000000, 1.000000000000000000 ) ) ;
#41 = DIRECTION ( 'NONE',  ( 0.000000000000000000, 0.000000000000000000, 1.000000000000000000 ) ) ;
#42 = CIRCLE ( 'NONE', #115, 3.000000000000000444 ) ;
#43 = PRODUCT_RELATED_PRODUCT_CATEGORY ( 'detail', '', ( #46 ) ) ;
#44 = AXIS2_PLACEMENT_3D ( 'NONE', #15, #238, #22 ) ;
#45 = CARTESIAN_POINT ( 'NONE',  ( 0.000000000000000000, 0.000000000000000000, 165.0000000000000000 ) ) ;
#46 = PRODUCT ( '26aa', '26aa', '', ( #194 ) ) ;
#47 = ORIENTED_EDGE ( 'NONE', *, *, #89, .F. ) ;
#48 = ORIENTED_EDGE ( 'NONE', *, *, #56, .F. ) ;
#49 = DIRECTION ( 'NONE',  ( -1.000000000000000000, 0.000000000000000000, 0.000000000000000000 ) ) ;
#50 = AXIS2_PLACEMENT_3D ( 'NONE', #4, #138, #80 ) ;
#51 = ORIENTED_EDGE ( 'NONE', *, *, #156, .T. ) ;
#52 = ORIENTED_EDGE ( 'NONE', *, *, #2, .F. ) ;
#53 = EDGE_CURVE ( 'NONE', #59, #168, #148, .T. ) ;
#54 =( NAMED_UNIT ( * ) SI_UNIT ( $, .STERADIAN. ) SOLID_ANGLE_UNIT ( ) );
#55 = DIRECTION ( 'NONE',  ( 1.000000000000000000, 0.000000000000000000, 0.000000000000000000 ) ) ;
#56 = EDGE_CURVE ( 'NONE', #92, #91, #42, .T. ) ;
#57 = DIRECTION ( 'NONE',  ( 0.000000000000000000, 0.000000000000000000, 1.000000000000000000 ) ) ;
#58 = DIRECTION ( 'NONE',  ( -1.000000000000000000, 0.000000000000000000, 0.000000000000000000 ) ) ;
#59 = VERTEX_POINT ( 'NONE', #166 ) ;
#60 = LINE ( 'NONE', #157, #221 ) ;
#61 = AXIS2_PLACEMENT_3D ( 'NONE', #222, #11, #49 ) ;
#62 = DIRECTION ( 'NONE',  ( -0.000000000000000000, -0.000000000000000000, -1.000000000000000000 ) ) ;
#63 = AXIS2_PLACEMENT_3D ( 'NONE', #219, #40, #119 ) ;
#64 = ORIENTED_EDGE ( 'NONE', *, *, #241, .F. ) ;
#65 = LOCAL_TIME ( 19, 41, 0.000000000000000000, #76 ) ;
#66 = CARTESIAN_POINT ( 'NONE',  ( 0.000000000000000000, 0.000000000000000000, 0.000000000000000000 ) ) ;
#67 = DIRECTION ( 'NONE',  ( -0.000000000000000000, -0.000000000000000000, -1.000000000000000000 ) ) ;
#68 = DIRECTION ( 'NONE',  ( 1.000000000000000000, 0.000000000000000000, 0.000000000000000000 ) ) ;
#69 = CIRCLE ( 'NONE', #174, 6.000000000000000888 ) ;
#70 = ORGANIZATION ( 'NEURÈENÝ', 'NEURÈENÝ', '' ) ;
#71 = APPLICATION_CONTEXT ( 'configuration controlled 3d designs of mechanical parts and assemblies' ) ;
#72 = ORIENTED_EDGE ( 'NONE', *, *, #156, .F. ) ;
#73 = CC_DESIGN_PERSON_AND_ORGANIZATION_ASSIGNMENT ( #13, #134, ( #217 ) ) ;
#74 =( NAMED_UNIT ( * ) PLANE_ANGLE_UNIT ( ) SI_UNIT ( $, .RADIAN. ) );
#75 = CC_DESIGN_APPROVAL ( #133, ( #212 ) ) ;
#76 = COORDINATED_UNIVERSAL_TIME_OFFSET ( 1, 0, .AHEAD. ) ;
#77 = CALENDAR_DATE ( 2022, 7, 7 ) ;
#78 = PERSON_AND_ORGANIZATION ( #180, #70 ) ;
#79 = CALENDAR_DATE ( 2022, 7, 7 ) ;
#80 = DIRECTION ( 'NONE',  ( 1.000000000000000000, 0.000000000000000000, -0.000000000000000000 ) ) ;
#81 = VECTOR ( 'NONE', #243, 1000.000000000000000 ) ;
#82 = DATE_AND_TIME ( #1, #209 ) ;
#83 = AXIS2_PLACEMENT_3D ( 'NONE', #255, #41, #175 ) ;
#84 = FACE_OUTER_BOUND ( 'NONE', #237, .T. ) ;
#85 = DIRECTION ( 'NONE',  ( -0.000000000000000000, -0.000000000000000000, -1.000000000000000000 ) ) ;
#86 = EDGE_CURVE ( 'NONE', #91, #131, #244, .T. ) ;
#87 = DIRECTION ( 'NONE',  ( 0.000000000000000000, 0.000000000000000000, 1.000000000000000000 ) ) ;
#88 = ORIENTED_EDGE ( 'NONE', *, *, #86, .T. ) ;
#89 = EDGE_CURVE ( 'NONE', #26, #228, #123, .T. ) ;
#90 = FACE_OUTER_BOUND ( 'NONE', #186, .T. ) ;
#91 = VERTEX_POINT ( 'NONE', #117 ) ;
#92 = VERTEX_POINT ( 'NONE', #122 ) ;
#93 = CC_DESIGN_PERSON_AND_ORGANIZATION_ASSIGNMENT ( #135, #113, ( #46 ) ) ;
#94 = APPROVAL_STATUS ( 'not_yet_approved' ) ;
#95 = UNCERTAINTY_MEASURE_WITH_UNIT (LENGTH_MEASURE( 1.000000000000000082E-05 ), #32, 'distance_accuracy_value', 'NONE');
#96 = CLOSED_SHELL ( 'NONE', ( #150, #33, #141, #188, #125, #163, #106 ) ) ;
#97 = DATE_AND_TIME ( #79, #242 ) ;
#98 = DIRECTION ( 'NONE',  ( 0.000000000000000000, 0.000000000000000000, 1.000000000000000000 ) ) ;
#99 = FACE_OUTER_BOUND ( 'NONE', #202, .T. ) ;
#100 = APPROVAL_ROLE ( '' ) ;
#101 = DIRECTION ( 'NONE',  ( -1.000000000000000000, 0.000000000000000000, 0.000000000000000000 ) ) ;
#102 = VERTEX_POINT ( 'NONE', #6 ) ;
#103 = FACE_BOUND ( 'NONE', #120, .T. ) ;
#104 = ORIENTED_EDGE ( 'NONE', *, *, #191, .F. ) ;
#105 = FACE_OUTER_BOUND ( 'NONE', #144, .T. ) ;
#106 = ADVANCED_FACE ( 'NONE', ( #84 ), #159, .T. ) ;
#107 = DIRECTION ( 'NONE',  ( 0.000000000000000000, 0.000000000000000000, 1.000000000000000000 ) ) ;
#108 = CARTESIAN_POINT ( 'NONE',  ( 6.000000000000000888, 7.347880794884120722E-16, 5.000000000000000000 ) ) ;
#109 = CC_DESIGN_APPROVAL ( #146, ( #250 ) ) ;
#110 = DIRECTION ( 'NONE',  ( 1.000000000000000000, 0.000000000000000000, 0.000000000000000000 ) ) ;
#111 = ORIENTED_EDGE ( 'NONE', *, *, #38, .T. ) ;
#112 = APPROVAL_PERSON_ORGANIZATION ( #169, #248, #231 ) ;
#113 = PERSON_AND_ORGANIZATION_ROLE ( 'design_owner' ) ;
#114 = CALENDAR_DATE ( 2022, 7, 7 ) ;
#115 = AXIS2_PLACEMENT_3D ( 'NONE', #147, #10, #167 ) ;
#116 = COORDINATED_UNIVERSAL_TIME_OFFSET ( 1, 0, .AHEAD. ) ;
#117 = CARTESIAN_POINT ( 'NONE',  ( 3.000000000000000444, 3.673940397442060361E-16, 165.0000000000000000 ) ) ;
#118 = PERSON_AND_ORGANIZATION_ROLE ( 'classification_officer' ) ;
#119 = DIRECTION ( 'NONE',  ( 1.000000000000000000, 0.000000000000000000, -0.000000000000000000 ) ) ;
#120 = EDGE_LOOP ( 'NONE', ( #223, #72 ) ) ;
#121 = EDGE_CURVE ( 'NONE', #102, #131, #239, .T. ) ;
#122 = CARTESIAN_POINT ( 'NONE',  ( -3.000000000000000444, 0.000000000000000000, 165.0000000000000000 ) ) ;
#123 = LINE ( 'NONE', #23, #204 ) ;
#124 = CARTESIAN_POINT ( 'NONE',  ( 3.000000000000000444, 3.673940397442060361E-16, 5.000000000000000000 ) ) ;
#125 = ADVANCED_FACE ( 'NONE', ( #200 ), #214, .F. ) ;
#126 = AXIS2_PLACEMENT_3D ( 'NONE', #3, #37, #58 ) ;
#127 = ORIENTED_EDGE ( 'NONE', *, *, #184, .T. ) ;
#128 = ADVANCED_BREP_SHAPE_REPRESENTATION ( '26aa', ( #143, #183 ), #198 ) ;
#129 = ORIENTED_EDGE ( 'NONE', *, *, #53, .F. ) ;
#130 = DIRECTION ( 'NONE',  ( 0.000000000000000000, 0.000000000000000000, 1.000000000000000000 ) ) ;
#131 = VERTEX_POINT ( 'NONE', #124 ) ;
#132 = CC_DESIGN_APPROVAL ( #248, ( #217 ) ) ;
#133 = APPROVAL ( #249, 'NEURÈENÝ' ) ;
#134 = PERSON_AND_ORGANIZATION_ROLE ( 'creator' ) ;
#135 = PERSON_AND_ORGANIZATION ( #180, #70 ) ;
#136 = DATE_AND_TIME ( #234, #65 ) ;
#137 = CARTESIAN_POINT ( 'NONE',  ( 0.000000000000000000, 0.000000000000000000, 5.000000000000000000 ) ) ;
#138 = DIRECTION ( 'NONE',  ( 0.000000000000000000, 0.000000000000000000, 1.000000000000000000 ) ) ;
#139 = CARTESIAN_POINT ( 'NONE',  ( 0.000000000000000000, 0.000000000000000000, 5.000000000000000000 ) ) ;
#140 = APPROVAL_PERSON_ORGANIZATION ( #14, #146, #170 ) ;
#141 = ADVANCED_FACE ( 'NONE', ( #105 ), #235, .T. ) ;
#142 = DIRECTION ( 'NONE',  ( 1.000000000000000000, 0.000000000000000000, 0.000000000000000000 ) ) ;
#143 = MANIFOLD_SOLID_BREP ( 'Pøidat vysunutím3', #96 ) ;
#144 = EDGE_LOOP ( 'NONE', ( #47, #20, #206, #224 ) ) ;
#145 = LOCAL_TIME ( 19, 41, 0.000000000000000000, #36 ) ;
#146 = APPROVAL ( #94, 'NEURÈENÝ' ) ;
#147 = CARTESIAN_POINT ( 'NONE',  ( 0.000000000000000000, 0.000000000000000000, 165.0000000000000000 ) ) ;
#148 = LINE ( 'NONE', #12, #81 ) ;
#149 = CARTESIAN_POINT ( 'NONE',  ( 3.000000000000000444, 3.673940397442060361E-16, 165.0000000000000000 ) ) ;
#150 = ADVANCED_FACE ( 'NONE', ( #161 ), #201, .T. ) ;
#151 = ORIENTED_EDGE ( 'NONE', *, *, #121, .T. ) ;
#152 = CARTESIAN_POINT ( 'NONE',  ( 0.000000000000000000, 0.000000000000000000, 0.000000000000000000 ) ) ;
#153 = APPROVAL_DATE_TIME ( #136, #133 ) ;
#154 = APPROVAL_STATUS ( 'not_yet_approved' ) ;
#155 = SHAPE_DEFINITION_REPRESENTATION ( #30, #128 ) ;
#156 = EDGE_CURVE ( 'NONE', #131, #102, #162, .T. ) ;
#157 = CARTESIAN_POINT ( 'NONE',  ( -3.000000000000000444, 0.000000000000000000, 165.0000000000000000 ) ) ;
#158 = APPROVAL_DATE_TIME ( #17, #248 ) ;
#159 = PLANE ( 'NONE',  #63 ) ;
#160 = DIRECTION ( 'NONE',  ( 0.000000000000000000, 0.000000000000000000, 1.000000000000000000 ) ) ;
#161 = FACE_OUTER_BOUND ( 'NONE', #28, .T. ) ;
#162 = CIRCLE ( 'NONE', #83, 3.000000000000000444 ) ;
#163 = ADVANCED_FACE ( 'NONE', ( #177 ), #18, .T. ) ;
#164 = CIRCLE ( 'NONE', #187, 6.000000000000000888 ) ;
#165 = ORIENTED_EDGE ( 'NONE', *, *, #56, .T. ) ;
#166 = CARTESIAN_POINT ( 'NONE',  ( -6.000000000000000888, 0.000000000000000000, 5.000000000000000000 ) ) ;
#167 = DIRECTION ( 'NONE',  ( 1.000000000000000000, 0.000000000000000000, 0.000000000000000000 ) ) ;
#168 = VERTEX_POINT ( 'NONE', #193 ) ;
#169 = PERSON_AND_ORGANIZATION ( #180, #70 ) ;
#170 = APPROVAL_ROLE ( '' ) ;
#171 = APPLICATION_PROTOCOL_DEFINITION ( 'international standard', 'config_control_design', 1994, #251 ) ;
#172 = PLANE ( 'NONE',  #50 ) ;
#173 = DATE_AND_TIME ( #77, #31 ) ;
#174 = AXIS2_PLACEMENT_3D ( 'NONE', #66, #182, #68 ) ;
#175 = DIRECTION ( 'NONE',  ( 1.000000000000000000, 0.000000000000000000, 0.000000000000000000 ) ) ;
#176 = CIRCLE ( 'NONE', #44, 6.000000000000000888 ) ;
#177 = FACE_OUTER_BOUND ( 'NONE', #247, .T. ) ;
#178 = CARTESIAN_POINT ( 'NONE',  ( 0.000000000000000000, 0.000000000000000000, 5.000000000000000000 ) ) ;
#179 = CIRCLE ( 'NONE', #27, 6.000000000000000888 ) ;
#180 = PERSON ( 'NEURÈENÝ', 'NEURÈENÝ', 'NEURÈENÝ', ('NEURÈENÝ'), ('NEURÈENÝ'), ('NEURÈENÝ') ) ;
#181 = DIRECTION ( 'NONE',  ( 1.000000000000000000, 0.000000000000000000, 0.000000000000000000 ) ) ;
#182 = DIRECTION ( 'NONE',  ( 0.000000000000000000, 0.000000000000000000, 1.000000000000000000 ) ) ;
#183 = AXIS2_PLACEMENT_3D ( 'NONE', #152, #98, #55 ) ;
#184 = EDGE_CURVE ( 'NONE', #59, #26, #176, .T. ) ;
#185 = EDGE_LOOP ( 'NONE', ( #52, #215 ) ) ;
#186 = EDGE_LOOP ( 'NONE', ( #64, #205, #111, #129 ) ) ;
#187 = AXIS2_PLACEMENT_3D ( 'NONE', #29, #107, #181 ) ;
#188 = ADVANCED_FACE ( 'NONE', ( #103, #99 ), #172, .T. ) ;
#189 = APPLICATION_PROTOCOL_DEFINITION ( 'international standard', 'config_control_design', 1994, #71 ) ;
#190 = PERSON_AND_ORGANIZATION_ROLE ( 'design_supplier' ) ;
#191 = EDGE_CURVE ( 'NONE', #92, #102, #60, .T. ) ;
#192 = DATE_TIME_ROLE ( 'creation_date' ) ;
#193 = CARTESIAN_POINT ( 'NONE',  ( -6.000000000000000888, 0.000000000000000000, 0.000000000000000000 ) ) ;
#194 = MECHANICAL_CONTEXT ( 'NONE', #251, 'mechanical' ) ;
#195 = DIRECTION ( 'NONE',  ( -1.000000000000000000, 0.000000000000000000, 0.000000000000000000 ) ) ;
#196 = ORIENTED_EDGE ( 'NONE', *, *, #191, .T. ) ;
#197 = DIRECTION ( 'NONE',  ( 1.000000000000000000, 0.000000000000000000, -0.000000000000000000 ) ) ;
#198 =( GEOMETRIC_REPRESENTATION_CONTEXT ( 3 ) GLOBAL_UNCERTAINTY_ASSIGNED_CONTEXT ( ( #95 ) ) GLOBAL_UNIT_ASSIGNED_CONTEXT ( ( #32, #74, #54 ) ) REPRESENTATION_CONTEXT ( 'NONE', 'WORKASPACE' ) );
#199 = ORIENTED_EDGE ( 'NONE', *, *, #241, .T. ) ;
#200 = FACE_OUTER_BOUND ( 'NONE', #185, .T. ) ;
#201 = CYLINDRICAL_SURFACE ( 'NONE', #227, 3.000000000000000444 ) ;
#202 = EDGE_LOOP ( 'NONE', ( #127, #199 ) ) ;
#203 = ORIENTED_EDGE ( 'NONE', *, *, #9, .T. ) ;
#204 = VECTOR ( 'NONE', #233, 1000.000000000000000 ) ;
#205 = ORIENTED_EDGE ( 'NONE', *, *, #89, .T. ) ;
#206 = ORIENTED_EDGE ( 'NONE', *, *, #53, .T. ) ;
#207 = DESIGN_CONTEXT ( 'detailed design', #71, 'design' ) ;
#208 = AXIS2_PLACEMENT_3D ( 'NONE', #178, #57, #142 ) ;
#209 = LOCAL_TIME ( 19, 41, 0.000000000000000000, #39 ) ;
#210 = PERSON_AND_ORGANIZATION ( #180, #70 ) ;
#211 = DATE_TIME_ROLE ( 'classification_date' ) ;
#212 = PRODUCT_DEFINITION_FORMATION_WITH_SPECIFIED_SOURCE ( 'LIBOVOLNÝ', '', #46, .NOT_KNOWN. ) ;
#213 = SECURITY_CLASSIFICATION_LEVEL ( 'unclassified' ) ;
#214 = PLANE ( 'NONE',  #246 ) ;
#215 = ORIENTED_EDGE ( 'NONE', *, *, #38, .F. ) ;
#216 = CARTESIAN_POINT ( 'NONE',  ( 6.000000000000000888, 7.347880794884120722E-16, 0.000000000000000000 ) ) ;
#217 = PRODUCT_DEFINITION ( 'NEZNÁMÝ', '', #212, #207 ) ;
#218 = DIRECTION ( 'NONE',  ( 1.000000000000000000, 0.000000000000000000, 0.000000000000000000 ) ) ;
#219 = CARTESIAN_POINT ( 'NONE',  ( 0.000000000000000000, 0.000000000000000000, 165.0000000000000000 ) ) ;
#220 = CC_DESIGN_DATE_AND_TIME_ASSIGNMENT ( #173, #192, ( #217 ) ) ;
#221 = VECTOR ( 'NONE', #85, 1000.000000000000000 ) ;
#222 = CARTESIAN_POINT ( 'NONE',  ( 0.000000000000000000, 0.000000000000000000, 5.000000000000000000 ) ) ;
#223 = ORIENTED_EDGE ( 'NONE', *, *, #121, .F. ) ;
#224 = ORIENTED_EDGE ( 'NONE', *, *, #2, .T. ) ;
#225 = CIRCLE ( 'NONE', #19, 3.000000000000000444 ) ;
#226 = ORIENTED_EDGE ( 'NONE', *, *, #9, .F. ) ;
#227 = AXIS2_PLACEMENT_3D ( 'NONE', #45, #24, #195 ) ;
#228 = VERTEX_POINT ( 'NONE', #216 ) ;
#229 = CC_DESIGN_DATE_AND_TIME_ASSIGNMENT ( #82, #211, ( #250 ) ) ;
#230 = APPROVAL_PERSON_ORGANIZATION ( #254, #133, #100 ) ;
#231 = APPROVAL_ROLE ( '' ) ;
#232 = PERSON_AND_ORGANIZATION ( #180, #70 ) ;
#233 = DIRECTION ( 'NONE',  ( -0.000000000000000000, -0.000000000000000000, -1.000000000000000000 ) ) ;
#234 = CALENDAR_DATE ( 2022, 7, 7 ) ;
#235 = CYLINDRICAL_SURFACE ( 'NONE', #21, 6.000000000000000888 ) ;
#236 = CC_DESIGN_PERSON_AND_ORGANIZATION_ASSIGNMENT ( #232, #118, ( #250 ) ) ;
#237 = EDGE_LOOP ( 'NONE', ( #165, #203 ) ) ;
#238 = DIRECTION ( 'NONE',  ( 0.000000000000000000, 0.000000000000000000, 1.000000000000000000 ) ) ;
#239 = CIRCLE ( 'NONE', #208, 3.000000000000000444 ) ;
#240 = CARTESIAN_POINT ( 'NONE',  ( 0.000000000000000000, 0.000000000000000000, 0.000000000000000000 ) ) ;
#241 = EDGE_CURVE ( 'NONE', #26, #59, #179, .T. ) ;
#242 = LOCAL_TIME ( 19, 41, 0.000000000000000000, #253 ) ;
#243 = DIRECTION ( 'NONE',  ( -0.000000000000000000, -0.000000000000000000, -1.000000000000000000 ) ) ;
#244 = LINE ( 'NONE', #149, #7 ) ;
#245 = CYLINDRICAL_SURFACE ( 'NONE', #61, 6.000000000000000888 ) ;
#246 = AXIS2_PLACEMENT_3D ( 'NONE', #240, #87, #197 ) ;
#247 = EDGE_LOOP ( 'NONE', ( #5, #48, #196, #151 ) ) ;
#248 = APPROVAL ( #154, 'NEURÈENÝ' ) ;
#249 = APPROVAL_STATUS ( 'not_yet_approved' ) ;
#250 = SECURITY_CLASSIFICATION ( '', '', #213 ) ;
#251 = APPLICATION_CONTEXT ( 'configuration controlled 3d designs of mechanical parts and assemblies' ) ;
#252 = CC_DESIGN_SECURITY_CLASSIFICATION ( #250, ( #212 ) ) ;
#253 = COORDINATED_UNIVERSAL_TIME_OFFSET ( 1, 0, .AHEAD. ) ;
#254 = PERSON_AND_ORGANIZATION ( #180, #70 ) ;
#255 = CARTESIAN_POINT ( 'NONE',  ( 0.000000000000000000, 0.000000000000000000, 5.000000000000000000 ) ) ;
ENDSEC;
END-ISO-10303-21;
