ISO-10303-21;
HEADER;
FILE_DESCRIPTION (( 'STEP AP203' ),
    '1' );
FILE_NAME ('d43e.STEP',
    '2022-07-07T17:26:59',
    ( '' ),
    ( '' ),
    'SwSTEP 2.0',
    'SolidWorks 2019',
    '' );
FILE_SCHEMA (( 'CONFIG_CONTROL_DESIGN' ));
ENDSEC;

DATA;
#1 = LINE ( 'NONE', #74, #8 ) ;
#2 = DIRECTION ( 'NONE',  ( -0.000000000000000000, -0.000000000000000000, -1.000000000000000000 ) ) ;
#3 = ORIENTED_EDGE ( 'NONE', *, *, #94, .T. ) ;
#4 = ORIENTED_EDGE ( 'NONE', *, *, #229, .T. ) ;
#5 = AXIS2_PLACEMENT_3D ( 'NONE', #155, #172, #69 ) ;
#6 = PRODUCT_DEFINITION ( 'NEZNÁMÝ', '', #14, #166 ) ;
#7 = SHAPE_DEFINITION_REPRESENTATION ( #239, #150 ) ;
#8 = VECTOR ( 'NONE', #140, 1000.000000000000000 ) ;
#9 = APPROVAL_STATUS ( 'not_yet_approved' ) ;
#10 = DATE_AND_TIME ( #152, #80 ) ;
#11 = DIRECTION ( 'NONE',  ( 1.000000000000000000, 0.000000000000000000, 0.000000000000000000 ) ) ;
#12 = AXIS2_PLACEMENT_3D ( 'NONE', #191, #163, #234 ) ;
#13 = APPROVAL ( #9, 'NEURÈENÝ' ) ;
#14 = PRODUCT_DEFINITION_FORMATION_WITH_SPECIFIED_SOURCE ( 'LIBOVOLNÝ', '', #84, .NOT_KNOWN. ) ;
#15 = ORIENTED_EDGE ( 'NONE', *, *, #229, .F. ) ;
#16 = CARTESIAN_POINT ( 'NONE',  ( 0.000000000000000000, 0.000000000000000000, 5.000000000000000000 ) ) ;
#17 = DIRECTION ( 'NONE',  ( -0.000000000000000000, -0.000000000000000000, -1.000000000000000000 ) ) ;
#18 = CARTESIAN_POINT ( 'NONE',  ( -5.000000000000000000, 0.000000000000000000, 405.0000000000000000 ) ) ;
#19 = CLOSED_SHELL ( 'NONE', ( #230, #66, #170, #128, #30, #75, #245 ) ) ;
#20 = VERTEX_POINT ( 'NONE', #122 ) ;
#21 = CARTESIAN_POINT ( 'NONE',  ( 5.000000000000000000, 6.123233995736766282E-16, 405.0000000000000000 ) ) ;
#22 = EDGE_CURVE ( 'NONE', #100, #90, #87, .T. ) ;
#23 = EDGE_CURVE ( 'NONE', #90, #100, #123, .T. ) ;
#24 = CALENDAR_DATE ( 2022, 7, 7 ) ;
#25 = PERSON_AND_ORGANIZATION_ROLE ( 'design_supplier' ) ;
#26 = CC_DESIGN_DATE_AND_TIME_ASSIGNMENT ( #10, #110, ( #64 ) ) ;
#27 = PRODUCT_RELATED_PRODUCT_CATEGORY ( 'detail', '', ( #84 ) ) ;
#28 = DIRECTION ( 'NONE',  ( 1.000000000000000000, 0.000000000000000000, -0.000000000000000000 ) ) ;
#29 = FACE_OUTER_BOUND ( 'NONE', #246, .T. ) ;
#30 = ADVANCED_FACE ( 'NONE', ( #79 ), #141, .F. ) ;
#31 = EDGE_LOOP ( 'NONE', ( #111, #197, #178, #102 ) ) ;
#32 = AXIS2_PLACEMENT_3D ( 'NONE', #233, #177, #164 ) ;
#33 = ORIENTED_EDGE ( 'NONE', *, *, #118, .T. ) ;
#34 = CARTESIAN_POINT ( 'NONE',  ( 0.000000000000000000, 0.000000000000000000, 0.000000000000000000 ) ) ;
#35 = FACE_OUTER_BOUND ( 'NONE', #85, .T. ) ;
#36 = FACE_OUTER_BOUND ( 'NONE', #58, .T. ) ;
#37 = DIRECTION ( 'NONE',  ( 1.000000000000000000, 0.000000000000000000, 0.000000000000000000 ) ) ;
#38 = CARTESIAN_POINT ( 'NONE',  ( 8.000000000000000000, 9.797174393178825657E-16, 0.000000000000000000 ) ) ;
#39 = CARTESIAN_POINT ( 'NONE',  ( 5.000000000000000000, 6.123233995736766282E-16, 5.000000000000000000 ) ) ;
#40 = PERSON_AND_ORGANIZATION ( #201, #125 ) ;
#41 = AXIS2_PLACEMENT_3D ( 'NONE', #156, #210, #209 ) ;
#42 = APPROVAL_DATE_TIME ( #149, #157 ) ;
#43 = VERTEX_POINT ( 'NONE', #18 ) ;
#44 = PERSON_AND_ORGANIZATION_ROLE ( 'creator' ) ;
#45 = COORDINATED_UNIVERSAL_TIME_OFFSET ( 1, 0, .AHEAD. ) ;
#46 = AXIS2_PLACEMENT_3D ( 'NONE', #34, #117, #193 ) ;
#47 = EDGE_CURVE ( 'NONE', #236, #100, #1, .T. ) ;
#48 = CC_DESIGN_PERSON_AND_ORGANIZATION_ASSIGNMENT ( #169, #44, ( #6 ) ) ;
#49 = EDGE_LOOP ( 'NONE', ( #15, #131 ) ) ;
#50 = CYLINDRICAL_SURFACE ( 'NONE', #124, 5.000000000000000000 ) ;
#51 = PLANE ( 'NONE',  #145 ) ;
#52 =( NAMED_UNIT ( * ) SI_UNIT ( $, .STERADIAN. ) SOLID_ANGLE_UNIT ( ) );
#53 = ORIENTED_EDGE ( 'NONE', *, *, #95, .F. ) ;
#54 = VECTOR ( 'NONE', #2, 1000.000000000000000 ) ;
#55 = CARTESIAN_POINT ( 'NONE',  ( 0.000000000000000000, 0.000000000000000000, 405.0000000000000000 ) ) ;
#56 = CARTESIAN_POINT ( 'NONE',  ( 0.000000000000000000, 0.000000000000000000, 0.000000000000000000 ) ) ;
#57 = DIRECTION ( 'NONE',  ( 0.000000000000000000, 0.000000000000000000, 1.000000000000000000 ) ) ;
#58 = EDGE_LOOP ( 'NONE', ( #81, #3 ) ) ;
#59 = LOCAL_TIME ( 19, 26, 59.00000000000000000, #60 ) ;
#60 = COORDINATED_UNIVERSAL_TIME_OFFSET ( 1, 0, .AHEAD. ) ;
#61 = VERTEX_POINT ( 'NONE', #97 ) ;
#62 = CALENDAR_DATE ( 2022, 7, 7 ) ;
#63 = COORDINATED_UNIVERSAL_TIME_OFFSET ( 1, 0, .AHEAD. ) ;
#64 = SECURITY_CLASSIFICATION ( '', '', #222 ) ;
#65 = EDGE_CURVE ( 'NONE', #116, #90, #219, .T. ) ;
#66 = ADVANCED_FACE ( 'NONE', ( #35 ), #180, .T. ) ;
#67 = DIRECTION ( 'NONE',  ( 0.000000000000000000, 0.000000000000000000, 1.000000000000000000 ) ) ;
#68 = CC_DESIGN_APPROVAL ( #13, ( #6 ) ) ;
#69 = DIRECTION ( 'NONE',  ( -1.000000000000000000, 0.000000000000000000, 0.000000000000000000 ) ) ;
#70 = APPLICATION_CONTEXT ( 'configuration controlled 3d designs of mechanical parts and assemblies' ) ;
#71 = DIRECTION ( 'NONE',  ( 1.000000000000000000, 0.000000000000000000, 0.000000000000000000 ) ) ;
#72 = DIRECTION ( 'NONE',  ( -0.000000000000000000, -0.000000000000000000, -1.000000000000000000 ) ) ;
#73 = DIRECTION ( 'NONE',  ( -0.000000000000000000, -0.000000000000000000, -1.000000000000000000 ) ) ;
#74 = CARTESIAN_POINT ( 'NONE',  ( -8.000000000000000000, 0.000000000000000000, 5.000000000000000000 ) ) ;
#75 = ADVANCED_FACE ( 'NONE', ( #194 ), #253, .T. ) ;
#76 = CC_DESIGN_PERSON_AND_ORGANIZATION_ASSIGNMENT ( #40, #25, ( #14 ) ) ;
#77 = EDGE_LOOP ( 'NONE', ( #127, #53, #33, #4 ) ) ;
#78 = ORIENTED_EDGE ( 'NONE', *, *, #22, .F. ) ;
#79 = FACE_OUTER_BOUND ( 'NONE', #146, .T. ) ;
#80 = LOCAL_TIME ( 19, 26, 59.00000000000000000, #63 ) ;
#81 = ORIENTED_EDGE ( 'NONE', *, *, #199, .T. ) ;
#82 = LOCAL_TIME ( 19, 26, 59.00000000000000000, #206 ) ;
#83 = APPLICATION_PROTOCOL_DEFINITION ( 'international standard', 'config_control_design', 1994, #104 ) ;
#84 = PRODUCT ( 'd43e', 'd43e', '', ( #254 ) ) ;
#85 = EDGE_LOOP ( 'NONE', ( #226, #182, #143, #106 ) ) ;
#86 = APPROVAL_DATE_TIME ( #107, #252 ) ;
#87 = CIRCLE ( 'NONE', #153, 8.000000000000000000 ) ;
#88 = VERTEX_POINT ( 'NONE', #39 ) ;
#89 =( NAMED_UNIT ( * ) PLANE_ANGLE_UNIT ( ) SI_UNIT ( $, .RADIAN. ) );
#90 = VERTEX_POINT ( 'NONE', #38 ) ;
#91 = FACE_OUTER_BOUND ( 'NONE', #142, .T. ) ;
#92 = APPROVAL_PERSON_ORGANIZATION ( #244, #252, #203 ) ;
#93 = CARTESIAN_POINT ( 'NONE',  ( 0.000000000000000000, 0.000000000000000000, 5.000000000000000000 ) ) ;
#94 = EDGE_CURVE ( 'NONE', #116, #236, #133, .T. ) ;
#95 = EDGE_CURVE ( 'NONE', #43, #61, #248, .T. ) ;
#96 = DIRECTION ( 'NONE',  ( -0.000000000000000000, -0.000000000000000000, -1.000000000000000000 ) ) ;
#97 = CARTESIAN_POINT ( 'NONE',  ( 5.000000000000000000, 6.123233995736766282E-16, 405.0000000000000000 ) ) ;
#98 = VECTOR ( 'NONE', #17, 1000.000000000000000 ) ;
#99 = ORIENTED_EDGE ( 'NONE', *, *, #199, .F. ) ;
#100 = VERTEX_POINT ( 'NONE', #198 ) ;
#101 = LINE ( 'NONE', #228, #54 ) ;
#102 = ORIENTED_EDGE ( 'NONE', *, *, #118, .F. ) ;
#103 = AXIS2_PLACEMENT_3D ( 'NONE', #16, #232, #11 ) ;
#104 = APPLICATION_CONTEXT ( 'configuration controlled 3d designs of mechanical parts and assemblies' ) ;
#105 = APPROVAL_STATUS ( 'not_yet_approved' ) ;
#106 = ORIENTED_EDGE ( 'NONE', *, *, #47, .F. ) ;
#107 = DATE_AND_TIME ( #181, #59 ) ;
#108 = CIRCLE ( 'NONE', #103, 5.000000000000000000 ) ;
#109 = APPROVAL_PERSON_ORGANIZATION ( #184, #13, #223 ) ;
#110 = DATE_TIME_ROLE ( 'classification_date' ) ;
#111 = ORIENTED_EDGE ( 'NONE', *, *, #147, .F. ) ;
#112 = CARTESIAN_POINT ( 'NONE',  ( 0.000000000000000000, 0.000000000000000000, 5.000000000000000000 ) ) ;
#113 = CARTESIAN_POINT ( 'NONE',  ( 0.000000000000000000, 0.000000000000000000, 405.0000000000000000 ) ) ;
#114 = DIRECTION ( 'NONE',  ( 1.000000000000000000, 0.000000000000000000, 0.000000000000000000 ) ) ;
#115 = EDGE_CURVE ( 'NONE', #61, #88, #255, .T. ) ;
#116 = VERTEX_POINT ( 'NONE', #216 ) ;
#117 = DIRECTION ( 'NONE',  ( 0.000000000000000000, 0.000000000000000000, 1.000000000000000000 ) ) ;
#118 = EDGE_CURVE ( 'NONE', #43, #20, #101, .T. ) ;
#119 = ORIENTED_EDGE ( 'NONE', *, *, #22, .T. ) ;
#120 = CYLINDRICAL_SURFACE ( 'NONE', #5, 8.000000000000000000 ) ;
#121 = DIRECTION ( 'NONE',  ( 0.000000000000000000, 0.000000000000000000, 1.000000000000000000 ) ) ;
#122 = CARTESIAN_POINT ( 'NONE',  ( -5.000000000000000000, 0.000000000000000000, 5.000000000000000000 ) ) ;
#123 = CIRCLE ( 'NONE', #204, 8.000000000000000000 ) ;
#124 = AXIS2_PLACEMENT_3D ( 'NONE', #215, #73, #227 ) ;
#125 = ORGANIZATION ( 'NEURÈENÝ', 'NEURÈENÝ', '' ) ;
#126 = DIRECTION ( 'NONE',  ( -1.000000000000000000, 0.000000000000000000, 0.000000000000000000 ) ) ;
#127 = ORIENTED_EDGE ( 'NONE', *, *, #115, .F. ) ;
#128 = ADVANCED_FACE ( 'NONE', ( #235, #36 ), #134, .T. ) ;
#129 = CALENDAR_DATE ( 2022, 7, 7 ) ;
#130 = PERSON_AND_ORGANIZATION ( #201, #125 ) ;
#131 = ORIENTED_EDGE ( 'NONE', *, *, #187, .F. ) ;
#132 = PERSON_AND_ORGANIZATION_ROLE ( 'design_owner' ) ;
#133 = CIRCLE ( 'NONE', #32, 8.000000000000000000 ) ;
#134 = PLANE ( 'NONE',  #41 ) ;
#135 =( LENGTH_UNIT ( ) NAMED_UNIT ( * ) SI_UNIT ( .MILLI., .METRE. ) );
#136 = MANIFOLD_SOLID_BREP ( 'Pøidat vysunutím3', #19 ) ;
#137 = DIRECTION ( 'NONE',  ( 1.000000000000000000, 0.000000000000000000, 0.000000000000000000 ) ) ;
#138 = VECTOR ( 'NONE', #72, 1000.000000000000000 ) ;
#139 = CC_DESIGN_APPROVAL ( #157, ( #14 ) ) ;
#140 = DIRECTION ( 'NONE',  ( -0.000000000000000000, -0.000000000000000000, -1.000000000000000000 ) ) ;
#141 = PLANE ( 'NONE',  #231 ) ;
#142 = EDGE_LOOP ( 'NONE', ( #196, #99, #185, #119 ) ) ;
#143 = ORIENTED_EDGE ( 'NONE', *, *, #23, .T. ) ;
#144 = DIRECTION ( 'NONE',  ( 1.000000000000000000, 0.000000000000000000, -0.000000000000000000 ) ) ;
#145 = AXIS2_PLACEMENT_3D ( 'NONE', #113, #176, #28 ) ;
#146 = EDGE_LOOP ( 'NONE', ( #78, #154 ) ) ;
#147 = EDGE_CURVE ( 'NONE', #61, #43, #188, .T. ) ;
#148 = CC_DESIGN_PERSON_AND_ORGANIZATION_ASSIGNMENT ( #165, #132, ( #84 ) ) ;
#149 = DATE_AND_TIME ( #62, #82 ) ;
#150 = ADVANCED_BREP_SHAPE_REPRESENTATION ( 'd43e', ( #136, #46 ), #220 ) ;
#151 = APPROVAL_DATE_TIME ( #202, #13 ) ;
#152 = CALENDAR_DATE ( 2022, 7, 7 ) ;
#153 = AXIS2_PLACEMENT_3D ( 'NONE', #56, #175, #37 ) ;
#154 = ORIENTED_EDGE ( 'NONE', *, *, #23, .F. ) ;
#155 = CARTESIAN_POINT ( 'NONE',  ( 0.000000000000000000, 0.000000000000000000, 5.000000000000000000 ) ) ;
#156 = CARTESIAN_POINT ( 'NONE',  ( 0.000000000000000000, 0.000000000000000000, 5.000000000000000000 ) ) ;
#157 = APPROVAL ( #242, 'NEURÈENÝ' ) ;
#158 = APPLICATION_PROTOCOL_DEFINITION ( 'international standard', 'config_control_design', 1994, #70 ) ;
#159 = CARTESIAN_POINT ( 'NONE',  ( 0.000000000000000000, 0.000000000000000000, 5.000000000000000000 ) ) ;
#160 = AXIS2_PLACEMENT_3D ( 'NONE', #55, #211, #114 ) ;
#161 = CARTESIAN_POINT ( 'NONE',  ( 0.000000000000000000, 0.000000000000000000, 0.000000000000000000 ) ) ;
#162 = UNCERTAINTY_MEASURE_WITH_UNIT (LENGTH_MEASURE( 1.000000000000000082E-05 ), #135, 'distance_accuracy_value', 'NONE');
#163 = DIRECTION ( 'NONE',  ( -0.000000000000000000, -0.000000000000000000, -1.000000000000000000 ) ) ;
#164 = DIRECTION ( 'NONE',  ( 1.000000000000000000, 0.000000000000000000, 0.000000000000000000 ) ) ;
#165 = PERSON_AND_ORGANIZATION ( #201, #125 ) ;
#166 = DESIGN_CONTEXT ( 'detailed design', #104, 'design' ) ;
#167 = CC_DESIGN_SECURITY_CLASSIFICATION ( #64, ( #14 ) ) ;
#168 = DATE_TIME_ROLE ( 'creation_date' ) ;
#169 = PERSON_AND_ORGANIZATION ( #201, #125 ) ;
#170 = ADVANCED_FACE ( 'NONE', ( #91 ), #120, .T. ) ;
#171 = CARTESIAN_POINT ( 'NONE',  ( 0.000000000000000000, 0.000000000000000000, 405.0000000000000000 ) ) ;
#172 = DIRECTION ( 'NONE',  ( -0.000000000000000000, -0.000000000000000000, -1.000000000000000000 ) ) ;
#173 = APPROVAL_PERSON_ORGANIZATION ( #200, #157, #221 ) ;
#174 = AXIS2_PLACEMENT_3D ( 'NONE', #93, #225, #71 ) ;
#175 = DIRECTION ( 'NONE',  ( 0.000000000000000000, 0.000000000000000000, 1.000000000000000000 ) ) ;
#176 = DIRECTION ( 'NONE',  ( 0.000000000000000000, 0.000000000000000000, 1.000000000000000000 ) ) ;
#177 = DIRECTION ( 'NONE',  ( 0.000000000000000000, 0.000000000000000000, 1.000000000000000000 ) ) ;
#178 = ORIENTED_EDGE ( 'NONE', *, *, #187, .T. ) ;
#179 = ORIENTED_EDGE ( 'NONE', *, *, #147, .T. ) ;
#180 = CYLINDRICAL_SURFACE ( 'NONE', #237, 8.000000000000000000 ) ;
#181 = CALENDAR_DATE ( 2022, 7, 7 ) ;
#182 = ORIENTED_EDGE ( 'NONE', *, *, #65, .T. ) ;
#183 = CIRCLE ( 'NONE', #251, 5.000000000000000000 ) ;
#184 = PERSON_AND_ORGANIZATION ( #201, #125 ) ;
#185 = ORIENTED_EDGE ( 'NONE', *, *, #47, .T. ) ;
#186 = DATE_AND_TIME ( #24, #207 ) ;
#187 = EDGE_CURVE ( 'NONE', #88, #20, #183, .T. ) ;
#188 = CIRCLE ( 'NONE', #238, 5.000000000000000000 ) ;
#189 = FACE_OUTER_BOUND ( 'NONE', #31, .T. ) ;
#190 = LOCAL_TIME ( 19, 26, 59.00000000000000000, #240 ) ;
#191 = CARTESIAN_POINT ( 'NONE',  ( 0.000000000000000000, 0.000000000000000000, 405.0000000000000000 ) ) ;
#192 = ORIENTED_EDGE ( 'NONE', *, *, #95, .T. ) ;
#193 = DIRECTION ( 'NONE',  ( 1.000000000000000000, 0.000000000000000000, 0.000000000000000000 ) ) ;
#194 = FACE_OUTER_BOUND ( 'NONE', #77, .T. ) ;
#195 = CARTESIAN_POINT ( 'NONE',  ( -8.000000000000000000, 0.000000000000000000, 5.000000000000000000 ) ) ;
#196 = ORIENTED_EDGE ( 'NONE', *, *, #65, .F. ) ;
#197 = ORIENTED_EDGE ( 'NONE', *, *, #115, .T. ) ;
#198 = CARTESIAN_POINT ( 'NONE',  ( -8.000000000000000000, 0.000000000000000000, 0.000000000000000000 ) ) ;
#199 = EDGE_CURVE ( 'NONE', #236, #116, #205, .T. ) ;
#200 = PERSON_AND_ORGANIZATION ( #201, #125 ) ;
#201 = PERSON ( 'NEURÈENÝ', 'NEURÈENÝ', 'NEURÈENÝ', ('NEURÈENÝ'), ('NEURÈENÝ'), ('NEURÈENÝ') ) ;
#202 = DATE_AND_TIME ( #129, #190 ) ;
#203 = APPROVAL_ROLE ( '' ) ;
#204 = AXIS2_PLACEMENT_3D ( 'NONE', #217, #121, #137 ) ;
#205 = CIRCLE ( 'NONE', #174, 8.000000000000000000 ) ;
#206 = COORDINATED_UNIVERSAL_TIME_OFFSET ( 1, 0, .AHEAD. ) ;
#207 = LOCAL_TIME ( 19, 26, 59.00000000000000000, #45 ) ;
#208 = CC_DESIGN_PERSON_AND_ORGANIZATION_ASSIGNMENT ( #130, #224, ( #14 ) ) ;
#209 = DIRECTION ( 'NONE',  ( 1.000000000000000000, 0.000000000000000000, -0.000000000000000000 ) ) ;
#210 = DIRECTION ( 'NONE',  ( 0.000000000000000000, 0.000000000000000000, 1.000000000000000000 ) ) ;
#211 = DIRECTION ( 'NONE',  ( 0.000000000000000000, 0.000000000000000000, 1.000000000000000000 ) ) ;
#212 = DIRECTION ( 'NONE',  ( 1.000000000000000000, 0.000000000000000000, 0.000000000000000000 ) ) ;
#213 = CARTESIAN_POINT ( 'NONE',  ( 8.000000000000000000, 9.797174393178825657E-16, 5.000000000000000000 ) ) ;
#214 = CC_DESIGN_DATE_AND_TIME_ASSIGNMENT ( #186, #168, ( #6 ) ) ;
#215 = CARTESIAN_POINT ( 'NONE',  ( 0.000000000000000000, 0.000000000000000000, 405.0000000000000000 ) ) ;
#216 = CARTESIAN_POINT ( 'NONE',  ( 8.000000000000000000, 9.797174393178825657E-16, 5.000000000000000000 ) ) ;
#217 = CARTESIAN_POINT ( 'NONE',  ( 0.000000000000000000, 0.000000000000000000, 0.000000000000000000 ) ) ;
#218 = CC_DESIGN_APPROVAL ( #252, ( #64 ) ) ;
#219 = LINE ( 'NONE', #213, #98 ) ;
#220 =( GEOMETRIC_REPRESENTATION_CONTEXT ( 3 ) GLOBAL_UNCERTAINTY_ASSIGNED_CONTEXT ( ( #162 ) ) GLOBAL_UNIT_ASSIGNED_CONTEXT ( ( #135, #89, #52 ) ) REPRESENTATION_CONTEXT ( 'NONE', 'WORKASPACE' ) );
#221 = APPROVAL_ROLE ( '' ) ;
#222 = SECURITY_CLASSIFICATION_LEVEL ( 'unclassified' ) ;
#223 = APPROVAL_ROLE ( '' ) ;
#224 = PERSON_AND_ORGANIZATION_ROLE ( 'creator' ) ;
#225 = DIRECTION ( 'NONE',  ( 0.000000000000000000, 0.000000000000000000, 1.000000000000000000 ) ) ;
#226 = ORIENTED_EDGE ( 'NONE', *, *, #94, .F. ) ;
#227 = DIRECTION ( 'NONE',  ( -1.000000000000000000, 0.000000000000000000, 0.000000000000000000 ) ) ;
#228 = CARTESIAN_POINT ( 'NONE',  ( -5.000000000000000000, 0.000000000000000000, 405.0000000000000000 ) ) ;
#229 = EDGE_CURVE ( 'NONE', #20, #88, #108, .T. ) ;
#230 = ADVANCED_FACE ( 'NONE', ( #189 ), #50, .T. ) ;
#231 = AXIS2_PLACEMENT_3D ( 'NONE', #161, #57, #144 ) ;
#232 = DIRECTION ( 'NONE',  ( 0.000000000000000000, 0.000000000000000000, 1.000000000000000000 ) ) ;
#233 = CARTESIAN_POINT ( 'NONE',  ( 0.000000000000000000, 0.000000000000000000, 5.000000000000000000 ) ) ;
#234 = DIRECTION ( 'NONE',  ( -1.000000000000000000, 0.000000000000000000, 0.000000000000000000 ) ) ;
#235 = FACE_BOUND ( 'NONE', #49, .T. ) ;
#236 = VERTEX_POINT ( 'NONE', #195 ) ;
#237 = AXIS2_PLACEMENT_3D ( 'NONE', #159, #96, #126 ) ;
#238 = AXIS2_PLACEMENT_3D ( 'NONE', #171, #67, #249 ) ;
#239 = PRODUCT_DEFINITION_SHAPE ( 'NONE', 'NONE',  #6 ) ;
#240 = COORDINATED_UNIVERSAL_TIME_OFFSET ( 1, 0, .AHEAD. ) ;
#241 = CC_DESIGN_PERSON_AND_ORGANIZATION_ASSIGNMENT ( #243, #247, ( #64 ) ) ;
#242 = APPROVAL_STATUS ( 'not_yet_approved' ) ;
#243 = PERSON_AND_ORGANIZATION ( #201, #125 ) ;
#244 = PERSON_AND_ORGANIZATION ( #201, #125 ) ;
#245 = ADVANCED_FACE ( 'NONE', ( #29 ), #51, .T. ) ;
#246 = EDGE_LOOP ( 'NONE', ( #192, #179 ) ) ;
#247 = PERSON_AND_ORGANIZATION_ROLE ( 'classification_officer' ) ;
#248 = CIRCLE ( 'NONE', #160, 5.000000000000000000 ) ;
#249 = DIRECTION ( 'NONE',  ( 1.000000000000000000, 0.000000000000000000, 0.000000000000000000 ) ) ;
#250 = DIRECTION ( 'NONE',  ( 0.000000000000000000, 0.000000000000000000, 1.000000000000000000 ) ) ;
#251 = AXIS2_PLACEMENT_3D ( 'NONE', #112, #250, #212 ) ;
#252 = APPROVAL ( #105, 'NEURÈENÝ' ) ;
#253 = CYLINDRICAL_SURFACE ( 'NONE', #12, 5.000000000000000000 ) ;
#254 = MECHANICAL_CONTEXT ( 'NONE', #70, 'mechanical' ) ;
#255 = LINE ( 'NONE', #21, #138 ) ;
ENDSEC;
END-ISO-10303-21;
