ISO-10303-21;
HEADER;
FILE_DESCRIPTION (( 'STEP AP203' ),
    '1' );
FILE_NAME ('cb56.STEP',
    '2022-07-07T17:16:58',
    ( '' ),
    ( '' ),
    'SwSTEP 2.0',
    'SolidWorks 2019',
    '' );
FILE_SCHEMA (( 'CONFIG_CONTROL_DESIGN' ));
ENDSEC;

DATA;
#1 = EDGE_LOOP ( 'NONE', ( #183, #89 ) ) ;
#2 = COORDINATED_UNIVERSAL_TIME_OFFSET ( 1, 0, .AHEAD. ) ;
#3 = ORIENTED_EDGE ( 'NONE', *, *, #251, .T. ) ;
#4 = AXIS2_PLACEMENT_3D ( 'NONE', #153, #37, #16 ) ;
#5 = CARTESIAN_POINT ( 'NONE',  ( 0.000000000000000000, 0.000000000000000000, 7.000000000000000000 ) ) ;
#6 = PERSON ( 'NEURÈENÝ', 'NEURÈENÝ', 'NEURÈENÝ', ('NEURÈENÝ'), ('NEURÈENÝ'), ('NEURÈENÝ') ) ;
#7 =( NAMED_UNIT ( * ) SI_UNIT ( $, .STERADIAN. ) SOLID_ANGLE_UNIT ( ) );
#8 = PERSON_AND_ORGANIZATION ( #6, #240 ) ;
#9 = AXIS2_PLACEMENT_3D ( 'NONE', #98, #250, #154 ) ;
#10 = ADVANCED_FACE ( 'NONE', ( #217 ), #102, .T. ) ;
#11 = DIRECTION ( 'NONE',  ( -0.000000000000000000, -0.000000000000000000, -1.000000000000000000 ) ) ;
#12 = CC_DESIGN_DATE_AND_TIME_ASSIGNMENT ( #121, #140, ( #163 ) ) ;
#13 = FACE_OUTER_BOUND ( 'NONE', #141, .T. ) ;
#14 = VECTOR ( 'NONE', #18, 1000.000000000000000 ) ;
#15 = DIRECTION ( 'NONE',  ( 1.000000000000000000, 0.000000000000000000, -0.000000000000000000 ) ) ;
#16 = DIRECTION ( 'NONE',  ( 1.000000000000000000, 0.000000000000000000, 0.000000000000000000 ) ) ;
#17 = DIRECTION ( 'NONE',  ( 1.000000000000000000, 0.000000000000000000, 0.000000000000000000 ) ) ;
#18 = DIRECTION ( 'NONE',  ( -0.000000000000000000, -0.000000000000000000, -1.000000000000000000 ) ) ;
#19 = PERSON_AND_ORGANIZATION ( #6, #240 ) ;
#20 = EDGE_CURVE ( 'NONE', #124, #145, #137, .T. ) ;
#21 = CLOSED_SHELL ( 'NONE', ( #222, #10, #146, #184, #111, #92, #239 ) ) ;
#22 = APPROVAL_STATUS ( 'not_yet_approved' ) ;
#23 = ORIENTED_EDGE ( 'NONE', *, *, #135, .T. ) ;
#24 = ORIENTED_EDGE ( 'NONE', *, *, #157, .F. ) ;
#25 = ORIENTED_EDGE ( 'NONE', *, *, #47, .T. ) ;
#26 = DIRECTION ( 'NONE',  ( 0.000000000000000000, 0.000000000000000000, 1.000000000000000000 ) ) ;
#27 =( GEOMETRIC_REPRESENTATION_CONTEXT ( 3 ) GLOBAL_UNCERTAINTY_ASSIGNED_CONTEXT ( ( #88 ) ) GLOBAL_UNIT_ASSIGNED_CONTEXT ( ( #33, #112, #7 ) ) REPRESENTATION_CONTEXT ( 'NONE', 'WORKASPACE' ) );
#28 = COORDINATED_UNIVERSAL_TIME_OFFSET ( 1, 0, .AHEAD. ) ;
#29 = PRODUCT_DEFINITION ( 'NEZNÁMÝ', '', #209, #200 ) ;
#30 = PERSON_AND_ORGANIZATION ( #6, #240 ) ;
#31 = DIRECTION ( 'NONE',  ( 0.000000000000000000, 0.000000000000000000, 1.000000000000000000 ) ) ;
#32 = CIRCLE ( 'NONE', #174, 11.00000000000000000 ) ;
#33 =( LENGTH_UNIT ( ) NAMED_UNIT ( * ) SI_UNIT ( .MILLI., .METRE. ) );
#34 = CARTESIAN_POINT ( 'NONE',  ( -6.500000000000000888, 0.000000000000000000, 207.0000000000000284 ) ) ;
#35 = CIRCLE ( 'NONE', #4, 6.500000000000000888 ) ;
#36 = LOCAL_TIME ( 19, 16, 58.00000000000000000, #28 ) ;
#37 = DIRECTION ( 'NONE',  ( 0.000000000000000000, 0.000000000000000000, 1.000000000000000000 ) ) ;
#38 = CARTESIAN_POINT ( 'NONE',  ( 6.500000000000000888, 7.960204194457796463E-16, 7.000000000000000000 ) ) ;
#39 = APPROVAL ( #22, 'NEURÈENÝ' ) ;
#40 = FACE_BOUND ( 'NONE', #1, .T. ) ;
#41 = PERSON_AND_ORGANIZATION ( #6, #240 ) ;
#42 = APPROVAL ( #67, 'NEURÈENÝ' ) ;
#43 = ORIENTED_EDGE ( 'NONE', *, *, #70, .F. ) ;
#44 = EDGE_LOOP ( 'NONE', ( #180, #234, #237, #24 ) ) ;
#45 = ORIENTED_EDGE ( 'NONE', *, *, #251, .F. ) ;
#46 = ORIENTED_EDGE ( 'NONE', *, *, #114, .F. ) ;
#47 = EDGE_CURVE ( 'NONE', #123, #106, #208, .T. ) ;
#48 = APPROVAL_PERSON_ORGANIZATION ( #61, #42, #194 ) ;
#49 = ORIENTED_EDGE ( 'NONE', *, *, #157, .T. ) ;
#50 = COORDINATED_UNIVERSAL_TIME_OFFSET ( 1, 0, .AHEAD. ) ;
#51 = APPROVAL_STATUS ( 'not_yet_approved' ) ;
#52 = CARTESIAN_POINT ( 'NONE',  ( -6.500000000000000888, 0.000000000000000000, 207.0000000000000284 ) ) ;
#53 = AXIS2_PLACEMENT_3D ( 'NONE', #57, #117, #252 ) ;
#54 = AXIS2_PLACEMENT_3D ( 'NONE', #175, #131, #15 ) ;
#55 = DIRECTION ( 'NONE',  ( 0.000000000000000000, 0.000000000000000000, 1.000000000000000000 ) ) ;
#56 = DIRECTION ( 'NONE',  ( -0.000000000000000000, -0.000000000000000000, -1.000000000000000000 ) ) ;
#57 = CARTESIAN_POINT ( 'NONE',  ( 0.000000000000000000, 0.000000000000000000, 207.0000000000000284 ) ) ;
#58 = AXIS2_PLACEMENT_3D ( 'NONE', #205, #11, #167 ) ;
#59 = DIRECTION ( 'NONE',  ( -1.000000000000000000, 0.000000000000000000, 0.000000000000000000 ) ) ;
#60 = CARTESIAN_POINT ( 'NONE',  ( 0.000000000000000000, 0.000000000000000000, 0.000000000000000000 ) ) ;
#61 = PERSON_AND_ORGANIZATION ( #6, #240 ) ;
#62 = CIRCLE ( 'NONE', #96, 6.500000000000000888 ) ;
#63 = ORIENTED_EDGE ( 'NONE', *, *, #20, .T. ) ;
#64 = ORIENTED_EDGE ( 'NONE', *, *, #128, .T. ) ;
#65 = CALENDAR_DATE ( 2022, 7, 7 ) ;
#66 = VERTEX_POINT ( 'NONE', #34 ) ;
#67 = APPROVAL_STATUS ( 'not_yet_approved' ) ;
#68 = CIRCLE ( 'NONE', #187, 6.500000000000000888 ) ;
#69 = DIRECTION ( 'NONE',  ( -0.000000000000000000, -0.000000000000000000, -1.000000000000000000 ) ) ;
#70 = EDGE_CURVE ( 'NONE', #145, #216, #210, .T. ) ;
#71 = DIRECTION ( 'NONE',  ( 1.000000000000000000, 0.000000000000000000, -0.000000000000000000 ) ) ;
#72 = PRODUCT_DEFINITION_SHAPE ( 'NONE', 'NONE',  #29 ) ;
#73 = DIRECTION ( 'NONE',  ( 0.000000000000000000, 0.000000000000000000, 1.000000000000000000 ) ) ;
#74 = AXIS2_PLACEMENT_3D ( 'NONE', #185, #73, #164 ) ;
#75 = APPLICATION_PROTOCOL_DEFINITION ( 'international standard', 'config_control_design', 1994, #238 ) ;
#76 = FACE_OUTER_BOUND ( 'NONE', #82, .T. ) ;
#77 = CC_DESIGN_PERSON_AND_ORGANIZATION_ASSIGNMENT ( #188, #247, ( #244 ) ) ;
#78 = CARTESIAN_POINT ( 'NONE',  ( 11.00000000000000000, 1.347111479062088405E-15, 7.000000000000000000 ) ) ;
#79 = APPROVAL_PERSON_ORGANIZATION ( #30, #148, #94 ) ;
#80 = DIRECTION ( 'NONE',  ( 1.000000000000000000, 0.000000000000000000, -0.000000000000000000 ) ) ;
#81 = PERSON_AND_ORGANIZATION ( #6, #240 ) ;
#82 = EDGE_LOOP ( 'NONE', ( #176, #197 ) ) ;
#83 = VECTOR ( 'NONE', #149, 1000.000000000000000 ) ;
#84 = DATE_AND_TIME ( #65, #253 ) ;
#85 = ORIENTED_EDGE ( 'NONE', *, *, #47, .F. ) ;
#86 = COORDINATED_UNIVERSAL_TIME_OFFSET ( 1, 0, .AHEAD. ) ;
#87 = CC_DESIGN_PERSON_AND_ORGANIZATION_ASSIGNMENT ( #127, #201, ( #29 ) ) ;
#88 = UNCERTAINTY_MEASURE_WITH_UNIT (LENGTH_MEASURE( 1.000000000000000082E-05 ), #33, 'distance_accuracy_value', 'NONE');
#89 = ORIENTED_EDGE ( 'NONE', *, *, #128, .F. ) ;
#90 = CC_DESIGN_APPROVAL ( #39, ( #209 ) ) ;
#91 = CALENDAR_DATE ( 2022, 7, 7 ) ;
#92 = ADVANCED_FACE ( 'NONE', ( #133 ), #99, .T. ) ;
#93 = LINE ( 'NONE', #52, #83 ) ;
#94 = APPROVAL_ROLE ( '' ) ;
#95 = DIRECTION ( 'NONE',  ( 1.000000000000000000, 0.000000000000000000, 0.000000000000000000 ) ) ;
#96 = AXIS2_PLACEMENT_3D ( 'NONE', #206, #31, #241 ) ;
#97 = CARTESIAN_POINT ( 'NONE',  ( 0.000000000000000000, 0.000000000000000000, 7.000000000000000000 ) ) ;
#98 = CARTESIAN_POINT ( 'NONE',  ( 0.000000000000000000, 0.000000000000000000, 7.000000000000000000 ) ) ;
#99 = CYLINDRICAL_SURFACE ( 'NONE', #53, 6.500000000000000888 ) ;
#100 = AXIS2_PLACEMENT_3D ( 'NONE', #130, #108, #71 ) ;
#101 = CARTESIAN_POINT ( 'NONE',  ( -11.00000000000000000, 0.000000000000000000, 7.000000000000000000 ) ) ;
#102 = CYLINDRICAL_SURFACE ( 'NONE', #219, 11.00000000000000000 ) ;
#103 = ORIENTED_EDGE ( 'NONE', *, *, #199, .T. ) ;
#104 = PERSON_AND_ORGANIZATION_ROLE ( 'design_supplier' ) ;
#105 = APPROVAL_DATE_TIME ( #158, #42 ) ;
#106 = VERTEX_POINT ( 'NONE', #38 ) ;
#107 = EDGE_LOOP ( 'NONE', ( #63, #103 ) ) ;
#108 = DIRECTION ( 'NONE',  ( 0.000000000000000000, 0.000000000000000000, 1.000000000000000000 ) ) ;
#109 = DIRECTION ( 'NONE',  ( -1.000000000000000000, 0.000000000000000000, 0.000000000000000000 ) ) ;
#110 = DATE_AND_TIME ( #91, #36 ) ;
#111 = ADVANCED_FACE ( 'NONE', ( #76 ), #134, .F. ) ;
#112 =( NAMED_UNIT ( * ) PLANE_ANGLE_UNIT ( ) SI_UNIT ( $, .RADIAN. ) );
#113 = APPLICATION_PROTOCOL_DEFINITION ( 'international standard', 'config_control_design', 1994, #223 ) ;
#114 = EDGE_CURVE ( 'NONE', #66, #123, #35, .T. ) ;
#115 = CARTESIAN_POINT ( 'NONE',  ( 0.000000000000000000, 0.000000000000000000, 0.000000000000000000 ) ) ;
#116 = LOCAL_TIME ( 19, 16, 58.00000000000000000, #2 ) ;
#117 = DIRECTION ( 'NONE',  ( -0.000000000000000000, -0.000000000000000000, -1.000000000000000000 ) ) ;
#118 = LINE ( 'NONE', #171, #236 ) ;
#119 = FACE_OUTER_BOUND ( 'NONE', #107, .T. ) ;
#120 = MANIFOLD_SOLID_BREP ( 'Pøidat vysunutím3', #21 ) ;
#121 = DATE_AND_TIME ( #177, #116 ) ;
#122 = ORIENTED_EDGE ( 'NONE', *, *, #204, .F. ) ;
#123 = VERTEX_POINT ( 'NONE', #225 ) ;
#124 = VERTEX_POINT ( 'NONE', #101 ) ;
#125 = PERSON_AND_ORGANIZATION_ROLE ( 'creator' ) ;
#126 = AXIS2_PLACEMENT_3D ( 'NONE', #172, #190, #80 ) ;
#127 = PERSON_AND_ORGANIZATION ( #6, #240 ) ;
#128 = EDGE_CURVE ( 'NONE', #106, #182, #226, .T. ) ;
#129 = DIRECTION ( 'NONE',  ( 0.000000000000000000, 0.000000000000000000, 1.000000000000000000 ) ) ;
#130 = CARTESIAN_POINT ( 'NONE',  ( 0.000000000000000000, 0.000000000000000000, 207.0000000000000284 ) ) ;
#131 = DIRECTION ( 'NONE',  ( 0.000000000000000000, 0.000000000000000000, 1.000000000000000000 ) ) ;
#132 = CC_DESIGN_PERSON_AND_ORGANIZATION_ASSIGNMENT ( #81, #142, ( #163 ) ) ;
#133 = FACE_OUTER_BOUND ( 'NONE', #214, .T. ) ;
#134 = PLANE ( 'NONE',  #126 ) ;
#135 = EDGE_CURVE ( 'NONE', #232, #216, #32, .T. ) ;
#136 = CYLINDRICAL_SURFACE ( 'NONE', #246, 11.00000000000000000 ) ;
#137 = CIRCLE ( 'NONE', #196, 11.00000000000000000 ) ;
#138 = CIRCLE ( 'NONE', #228, 11.00000000000000000 ) ;
#139 = EDGE_LOOP ( 'NONE', ( #43, #179, #49, #23 ) ) ;
#140 = DATE_TIME_ROLE ( 'classification_date' ) ;
#141 = EDGE_LOOP ( 'NONE', ( #45, #25, #64, #122 ) ) ;
#142 = PERSON_AND_ORGANIZATION_ROLE ( 'classification_officer' ) ;
#143 = ORIENTED_EDGE ( 'NONE', *, *, #114, .T. ) ;
#144 = CIRCLE ( 'NONE', #74, 11.00000000000000000 ) ;
#145 = VERTEX_POINT ( 'NONE', #189 ) ;
#146 = ADVANCED_FACE ( 'NONE', ( #230 ), #136, .T. ) ;
#147 = CARTESIAN_POINT ( 'NONE',  ( 0.000000000000000000, 0.000000000000000000, 0.000000000000000000 ) ) ;
#148 = APPROVAL ( #51, 'NEURÈENÝ' ) ;
#149 = DIRECTION ( 'NONE',  ( -0.000000000000000000, -0.000000000000000000, -1.000000000000000000 ) ) ;
#150 = CC_DESIGN_PERSON_AND_ORGANIZATION_ASSIGNMENT ( #19, #104, ( #209 ) ) ;
#151 = APPROVAL_DATE_TIME ( #203, #148 ) ;
#152 = CARTESIAN_POINT ( 'NONE',  ( 11.00000000000000000, 1.347111479062088405E-15, 0.000000000000000000 ) ) ;
#153 = CARTESIAN_POINT ( 'NONE',  ( 0.000000000000000000, 0.000000000000000000, 207.0000000000000284 ) ) ;
#154 = DIRECTION ( 'NONE',  ( 1.000000000000000000, 0.000000000000000000, 0.000000000000000000 ) ) ;
#155 = CC_DESIGN_APPROVAL ( #148, ( #29 ) ) ;
#156 = DIRECTION ( 'NONE',  ( 1.000000000000000000, 0.000000000000000000, 0.000000000000000000 ) ) ;
#157 = EDGE_CURVE ( 'NONE', #124, #232, #118, .T. ) ;
#158 = DATE_AND_TIME ( #255, #166 ) ;
#159 = VECTOR ( 'NONE', #173, 1000.000000000000000 ) ;
#160 = CC_DESIGN_APPROVAL ( #42, ( #163 ) ) ;
#161 = ORIENTED_EDGE ( 'NONE', *, *, #204, .T. ) ;
#162 = EDGE_CURVE ( 'NONE', #216, #232, #138, .T. ) ;
#163 = SECURITY_CLASSIFICATION ( '', '', #181 ) ;
#164 = DIRECTION ( 'NONE',  ( 1.000000000000000000, 0.000000000000000000, 0.000000000000000000 ) ) ;
#165 = CARTESIAN_POINT ( 'NONE',  ( -11.00000000000000000, 0.000000000000000000, 0.000000000000000000 ) ) ;
#166 = LOCAL_TIME ( 19, 16, 58.00000000000000000, #86 ) ;
#167 = DIRECTION ( 'NONE',  ( -1.000000000000000000, 0.000000000000000000, 0.000000000000000000 ) ) ;
#168 = CALENDAR_DATE ( 2022, 7, 7 ) ;
#169 = MECHANICAL_CONTEXT ( 'NONE', #223, 'mechanical' ) ;
#170 = ADVANCED_BREP_SHAPE_REPRESENTATION ( 'cb56', ( #120, #229 ), #27 ) ;
#171 = CARTESIAN_POINT ( 'NONE',  ( -11.00000000000000000, 0.000000000000000000, 7.000000000000000000 ) ) ;
#172 = CARTESIAN_POINT ( 'NONE',  ( 0.000000000000000000, 0.000000000000000000, 0.000000000000000000 ) ) ;
#173 = DIRECTION ( 'NONE',  ( -0.000000000000000000, -0.000000000000000000, -1.000000000000000000 ) ) ;
#174 = AXIS2_PLACEMENT_3D ( 'NONE', #60, #227, #156 ) ;
#175 = CARTESIAN_POINT ( 'NONE',  ( 0.000000000000000000, 0.000000000000000000, 7.000000000000000000 ) ) ;
#176 = ORIENTED_EDGE ( 'NONE', *, *, #135, .F. ) ;
#177 = CALENDAR_DATE ( 2022, 7, 7 ) ;
#178 = LOCAL_TIME ( 19, 16, 58.00000000000000000, #50 ) ;
#179 = ORIENTED_EDGE ( 'NONE', *, *, #20, .F. ) ;
#180 = ORIENTED_EDGE ( 'NONE', *, *, #199, .F. ) ;
#181 = SECURITY_CLASSIFICATION_LEVEL ( 'unclassified' ) ;
#182 = VERTEX_POINT ( 'NONE', #211 ) ;
#183 = ORIENTED_EDGE ( 'NONE', *, *, #191, .F. ) ;
#184 = ADVANCED_FACE ( 'NONE', ( #40, #119 ), #193, .T. ) ;
#185 = CARTESIAN_POINT ( 'NONE',  ( 0.000000000000000000, 0.000000000000000000, 7.000000000000000000 ) ) ;
#186 = DATE_TIME_ROLE ( 'creation_date' ) ;
#187 = AXIS2_PLACEMENT_3D ( 'NONE', #249, #55, #220 ) ;
#188 = PERSON_AND_ORGANIZATION ( #6, #240 ) ;
#189 = CARTESIAN_POINT ( 'NONE',  ( 11.00000000000000000, 1.347111479062088405E-15, 7.000000000000000000 ) ) ;
#190 = DIRECTION ( 'NONE',  ( 0.000000000000000000, 0.000000000000000000, 1.000000000000000000 ) ) ;
#191 = EDGE_CURVE ( 'NONE', #182, #106, #68, .T. ) ;
#192 = DIRECTION ( 'NONE',  ( 0.000000000000000000, 0.000000000000000000, 1.000000000000000000 ) ) ;
#193 = PLANE ( 'NONE',  #54 ) ;
#194 = APPROVAL_ROLE ( '' ) ;
#195 = EDGE_LOOP ( 'NONE', ( #143, #3 ) ) ;
#196 = AXIS2_PLACEMENT_3D ( 'NONE', #5, #26, #254 ) ;
#197 = ORIENTED_EDGE ( 'NONE', *, *, #162, .F. ) ;
#198 = ORIENTED_EDGE ( 'NONE', *, *, #191, .T. ) ;
#199 = EDGE_CURVE ( 'NONE', #145, #124, #144, .T. ) ;
#200 = DESIGN_CONTEXT ( 'detailed design', #238, 'design' ) ;
#201 = PERSON_AND_ORGANIZATION_ROLE ( 'creator' ) ;
#202 = PRODUCT_RELATED_PRODUCT_CATEGORY ( 'detail', '', ( #244 ) ) ;
#203 = DATE_AND_TIME ( #168, #178 ) ;
#204 = EDGE_CURVE ( 'NONE', #66, #182, #93, .T. ) ;
#205 = CARTESIAN_POINT ( 'NONE',  ( 0.000000000000000000, 0.000000000000000000, 207.0000000000000284 ) ) ;
#206 = CARTESIAN_POINT ( 'NONE',  ( 0.000000000000000000, 0.000000000000000000, 207.0000000000000284 ) ) ;
#207 = CARTESIAN_POINT ( 'NONE',  ( 6.500000000000000888, 7.960204194457796463E-16, 207.0000000000000284 ) ) ;
#208 = LINE ( 'NONE', #207, #14 ) ;
#209 = PRODUCT_DEFINITION_FORMATION_WITH_SPECIFIED_SOURCE ( 'LIBOVOLNÝ', '', #244, .NOT_KNOWN. ) ;
#210 = LINE ( 'NONE', #78, #159 ) ;
#211 = CARTESIAN_POINT ( 'NONE',  ( -6.500000000000000888, 0.000000000000000000, 7.000000000000000000 ) ) ;
#212 = APPROVAL_ROLE ( '' ) ;
#213 = APPROVAL_PERSON_ORGANIZATION ( #8, #39, #212 ) ;
#214 = EDGE_LOOP ( 'NONE', ( #85, #46, #161, #198 ) ) ;
#215 = SHAPE_DEFINITION_REPRESENTATION ( #72, #170 ) ;
#216 = VERTEX_POINT ( 'NONE', #152 ) ;
#217 = FACE_OUTER_BOUND ( 'NONE', #44, .T. ) ;
#218 = CC_DESIGN_DATE_AND_TIME_ASSIGNMENT ( #110, #186, ( #29 ) ) ;
#219 = AXIS2_PLACEMENT_3D ( 'NONE', #233, #69, #109 ) ;
#220 = DIRECTION ( 'NONE',  ( 1.000000000000000000, 0.000000000000000000, 0.000000000000000000 ) ) ;
#221 = FACE_OUTER_BOUND ( 'NONE', #195, .T. ) ;
#222 = ADVANCED_FACE ( 'NONE', ( #13 ), #245, .T. ) ;
#223 = APPLICATION_CONTEXT ( 'configuration controlled 3d designs of mechanical parts and assemblies' ) ;
#224 = DIRECTION ( 'NONE',  ( -0.000000000000000000, -0.000000000000000000, -1.000000000000000000 ) ) ;
#225 = CARTESIAN_POINT ( 'NONE',  ( 6.500000000000000888, 7.960204194457796463E-16, 207.0000000000000284 ) ) ;
#226 = CIRCLE ( 'NONE', #9, 6.500000000000000888 ) ;
#227 = DIRECTION ( 'NONE',  ( 0.000000000000000000, 0.000000000000000000, 1.000000000000000000 ) ) ;
#228 = AXIS2_PLACEMENT_3D ( 'NONE', #115, #192, #17 ) ;
#229 = AXIS2_PLACEMENT_3D ( 'NONE', #147, #129, #95 ) ;
#230 = FACE_OUTER_BOUND ( 'NONE', #139, .T. ) ;
#231 = APPROVAL_DATE_TIME ( #84, #39 ) ;
#232 = VERTEX_POINT ( 'NONE', #165 ) ;
#233 = CARTESIAN_POINT ( 'NONE',  ( 0.000000000000000000, 0.000000000000000000, 7.000000000000000000 ) ) ;
#234 = ORIENTED_EDGE ( 'NONE', *, *, #70, .T. ) ;
#235 = COORDINATED_UNIVERSAL_TIME_OFFSET ( 1, 0, .AHEAD. ) ;
#236 = VECTOR ( 'NONE', #56, 1000.000000000000000 ) ;
#237 = ORIENTED_EDGE ( 'NONE', *, *, #162, .T. ) ;
#238 = APPLICATION_CONTEXT ( 'configuration controlled 3d designs of mechanical parts and assemblies' ) ;
#239 = ADVANCED_FACE ( 'NONE', ( #221 ), #243, .T. ) ;
#240 = ORGANIZATION ( 'NEURÈENÝ', 'NEURÈENÝ', '' ) ;
#241 = DIRECTION ( 'NONE',  ( 1.000000000000000000, 0.000000000000000000, 0.000000000000000000 ) ) ;
#242 = CC_DESIGN_PERSON_AND_ORGANIZATION_ASSIGNMENT ( #41, #125, ( #209 ) ) ;
#243 = PLANE ( 'NONE',  #100 ) ;
#244 = PRODUCT ( 'cb56', 'cb56', '', ( #169 ) ) ;
#245 = CYLINDRICAL_SURFACE ( 'NONE', #58, 6.500000000000000888 ) ;
#246 = AXIS2_PLACEMENT_3D ( 'NONE', #97, #224, #59 ) ;
#247 = PERSON_AND_ORGANIZATION_ROLE ( 'design_owner' ) ;
#248 = CC_DESIGN_SECURITY_CLASSIFICATION ( #163, ( #209 ) ) ;
#249 = CARTESIAN_POINT ( 'NONE',  ( 0.000000000000000000, 0.000000000000000000, 7.000000000000000000 ) ) ;
#250 = DIRECTION ( 'NONE',  ( 0.000000000000000000, 0.000000000000000000, 1.000000000000000000 ) ) ;
#251 = EDGE_CURVE ( 'NONE', #123, #66, #62, .T. ) ;
#252 = DIRECTION ( 'NONE',  ( -1.000000000000000000, 0.000000000000000000, 0.000000000000000000 ) ) ;
#253 = LOCAL_TIME ( 19, 16, 58.00000000000000000, #235 ) ;
#254 = DIRECTION ( 'NONE',  ( 1.000000000000000000, 0.000000000000000000, 0.000000000000000000 ) ) ;
#255 = CALENDAR_DATE ( 2022, 7, 7 ) ;
ENDSEC;
END-ISO-10303-21;
