ISO-10303-21;
HEADER;
FILE_DESCRIPTION (( 'STEP AP203' ),
    '1' );
FILE_NAME ('0df1.STEP',
    '2022-07-07T17:37:26',
    ( '' ),
    ( '' ),
    'SwSTEP 2.0',
    'SolidWorks 2019',
    '' );
FILE_SCHEMA (( 'CONFIG_CONTROL_DESIGN' ));
ENDSEC;

DATA;
#1 = CARTESIAN_POINT ( 'NONE',  ( 3.250000000000000444, 3.980102097228898231E-16, 205.0000000000000284 ) ) ;
#2 = COORDINATED_UNIVERSAL_TIME_OFFSET ( 1, 0, .AHEAD. ) ;
#3 = DIRECTION ( 'NONE',  ( 0.000000000000000000, 0.000000000000000000, 1.000000000000000000 ) ) ;
#4 = ADVANCED_FACE ( 'NONE', ( #245 ), #108, .T. ) ;
#5 = APPLICATION_CONTEXT ( 'configuration controlled 3d designs of mechanical parts and assemblies' ) ;
#6 = VERTEX_POINT ( 'NONE', #90 ) ;
#7 = VERTEX_POINT ( 'NONE', #166 ) ;
#8 = ORIENTED_EDGE ( 'NONE', *, *, #150, .F. ) ;
#9 = VERTEX_POINT ( 'NONE', #32 ) ;
#10 = EDGE_LOOP ( 'NONE', ( #8, #88, #205, #244 ) ) ;
#11 = PERSON_AND_ORGANIZATION ( #67, #242 ) ;
#12 = CC_DESIGN_PERSON_AND_ORGANIZATION_ASSIGNMENT ( #17, #112, ( #234 ) ) ;
#13 = CIRCLE ( 'NONE', #199, 3.250000000000000444 ) ;
#14 = EDGE_CURVE ( 'NONE', #6, #30, #110, .T. ) ;
#15 = AXIS2_PLACEMENT_3D ( 'NONE', #115, #26, #191 ) ;
#16 = CC_DESIGN_APPROVAL ( #43, ( #69 ) ) ;
#17 = PERSON_AND_ORGANIZATION ( #67, #242 ) ;
#18 =( LENGTH_UNIT ( ) NAMED_UNIT ( * ) SI_UNIT ( .MILLI., .METRE. ) );
#19 = DIRECTION ( 'NONE',  ( 0.000000000000000000, 0.000000000000000000, 1.000000000000000000 ) ) ;
#20 = PERSON_AND_ORGANIZATION ( #67, #242 ) ;
#21 = LINE ( 'NONE', #1, #74 ) ;
#22 = CLOSED_SHELL ( 'NONE', ( #164, #250, #126, #130, #82, #4, #211 ) ) ;
#23 = EDGE_CURVE ( 'NONE', #30, #6, #186, .T. ) ;
#24 = DIRECTION ( 'NONE',  ( -0.000000000000000000, -0.000000000000000000, -1.000000000000000000 ) ) ;
#25 = CARTESIAN_POINT ( 'NONE',  ( 0.000000000000000000, 0.000000000000000000, 0.000000000000000000 ) ) ;
#26 = DIRECTION ( 'NONE',  ( -0.000000000000000000, -0.000000000000000000, -1.000000000000000000 ) ) ;
#27 = EDGE_LOOP ( 'NONE', ( #165, #243, #31, #50 ) ) ;
#28 = CC_DESIGN_DATE_AND_TIME_ASSIGNMENT ( #94, #33, ( #71 ) ) ;
#29 = UNCERTAINTY_MEASURE_WITH_UNIT (LENGTH_MEASURE( 1.000000000000000082E-05 ), #18, 'distance_accuracy_value', 'NONE');
#30 = VERTEX_POINT ( 'NONE', #226 ) ;
#31 = ORIENTED_EDGE ( 'NONE', *, *, #87, .T. ) ;
#32 = CARTESIAN_POINT ( 'NONE',  ( 3.250000000000000444, 3.980102097228898231E-16, 205.0000000000000284 ) ) ;
#33 = DATE_TIME_ROLE ( 'classification_date' ) ;
#34 = PERSON_AND_ORGANIZATION ( #67, #242 ) ;
#35 = CIRCLE ( 'NONE', #227, 3.250000000000000444 ) ;
#36 = CARTESIAN_POINT ( 'NONE',  ( 6.000000000000000888, 7.347880794884120722E-16, 5.000000000000000000 ) ) ;
#37 = CARTESIAN_POINT ( 'NONE',  ( 6.000000000000000888, 7.347880794884120722E-16, 5.000000000000000000 ) ) ;
#38 = EDGE_CURVE ( 'NONE', #129, #222, #68, .T. ) ;
#39 = DATE_AND_TIME ( #214, #170 ) ;
#40 = CARTESIAN_POINT ( 'NONE',  ( -6.000000000000000888, 0.000000000000000000, 5.000000000000000000 ) ) ;
#41 = FACE_OUTER_BOUND ( 'NONE', #204, .T. ) ;
#42 = AXIS2_PLACEMENT_3D ( 'NONE', #25, #230, #174 ) ;
#43 = APPROVAL ( #114, 'NEURÈENÝ' ) ;
#44 = AXIS2_PLACEMENT_3D ( 'NONE', #134, #241, #100 ) ;
#45 = AXIS2_PLACEMENT_3D ( 'NONE', #195, #159, #237 ) ;
#46 = ORIENTED_EDGE ( 'NONE', *, *, #81, .F. ) ;
#47 = ORIENTED_EDGE ( 'NONE', *, *, #23, .F. ) ;
#48 = ORIENTED_EDGE ( 'NONE', *, *, #14, .F. ) ;
#49 = CIRCLE ( 'NONE', #92, 6.000000000000000888 ) ;
#50 = ORIENTED_EDGE ( 'NONE', *, *, #14, .T. ) ;
#51 = MECHANICAL_CONTEXT ( 'NONE', #5, 'mechanical' ) ;
#52 = DIRECTION ( 'NONE',  ( 0.000000000000000000, 0.000000000000000000, 1.000000000000000000 ) ) ;
#53 = LINE ( 'NONE', #233, #169 ) ;
#54 = CC_DESIGN_DATE_AND_TIME_ASSIGNMENT ( #101, #77, ( #69 ) ) ;
#55 = DIRECTION ( 'NONE',  ( -1.000000000000000000, 0.000000000000000000, 0.000000000000000000 ) ) ;
#56 = APPROVAL_STATUS ( 'not_yet_approved' ) ;
#57 = PLANE ( 'NONE',  #217 ) ;
#58 = CARTESIAN_POINT ( 'NONE',  ( -6.000000000000000888, 0.000000000000000000, 5.000000000000000000 ) ) ;
#59 = VECTOR ( 'NONE', #137, 1000.000000000000000 ) ;
#60 = AXIS2_PLACEMENT_3D ( 'NONE', #65, #128, #147 ) ;
#61 =( GEOMETRIC_REPRESENTATION_CONTEXT ( 3 ) GLOBAL_UNCERTAINTY_ASSIGNED_CONTEXT ( ( #29 ) ) GLOBAL_UNIT_ASSIGNED_CONTEXT ( ( #18, #252, #75 ) ) REPRESENTATION_CONTEXT ( 'NONE', 'WORKASPACE' ) );
#62 = VERTEX_POINT ( 'NONE', #40 ) ;
#63 = EDGE_LOOP ( 'NONE', ( #181, #223, #86, #123 ) ) ;
#64 = CARTESIAN_POINT ( 'NONE',  ( 0.000000000000000000, 0.000000000000000000, 205.0000000000000284 ) ) ;
#65 = CARTESIAN_POINT ( 'NONE',  ( 0.000000000000000000, 0.000000000000000000, 5.000000000000000000 ) ) ;
#66 = APPROVAL_PERSON_ORGANIZATION ( #113, #238, #70 ) ;
#67 = PERSON ( 'NEURÈENÝ', 'NEURÈENÝ', 'NEURÈENÝ', ('NEURÈENÝ'), ('NEURÈENÝ'), ('NEURÈENÝ') ) ;
#68 = CIRCLE ( 'NONE', #44, 6.000000000000000888 ) ;
#69 = PRODUCT_DEFINITION ( 'NEZNÁMÝ', '', #234, #83 ) ;
#70 = APPROVAL_ROLE ( '' ) ;
#71 = SECURITY_CLASSIFICATION ( '', '', #189 ) ;
#72 = DIRECTION ( 'NONE',  ( 1.000000000000000000, 0.000000000000000000, 0.000000000000000000 ) ) ;
#73 = DIRECTION ( 'NONE',  ( -0.000000000000000000, -0.000000000000000000, -1.000000000000000000 ) ) ;
#74 = VECTOR ( 'NONE', #161, 1000.000000000000000 ) ;
#75 =( NAMED_UNIT ( * ) SI_UNIT ( $, .STERADIAN. ) SOLID_ANGLE_UNIT ( ) );
#76 = PLANE ( 'NONE',  #125 ) ;
#77 = DATE_TIME_ROLE ( 'creation_date' ) ;
#78 = PLANE ( 'NONE',  #45 ) ;
#79 = CALENDAR_DATE ( 2022, 7, 7 ) ;
#80 = DIRECTION ( 'NONE',  ( 1.000000000000000000, 0.000000000000000000, -0.000000000000000000 ) ) ;
#81 = EDGE_CURVE ( 'NONE', #222, #129, #180, .T. ) ;
#82 = ADVANCED_FACE ( 'NONE', ( #255 ), #57, .F. ) ;
#83 = DESIGN_CONTEXT ( 'detailed design', #187, 'design' ) ;
#84 = VERTEX_POINT ( 'NONE', #36 ) ;
#85 = AXIS2_PLACEMENT_3D ( 'NONE', #175, #135, #253 ) ;
#86 = ORIENTED_EDGE ( 'NONE', *, *, #119, .T. ) ;
#87 = EDGE_CURVE ( 'NONE', #7, #6, #53, .T. ) ;
#88 = ORIENTED_EDGE ( 'NONE', *, *, #207, .T. ) ;
#89 = EDGE_LOOP ( 'NONE', ( #48, #47 ) ) ;
#90 = CARTESIAN_POINT ( 'NONE',  ( -3.250000000000000444, 0.000000000000000000, 5.000000000000000000 ) ) ;
#91 = PERSON_AND_ORGANIZATION_ROLE ( 'classification_officer' ) ;
#92 = AXIS2_PLACEMENT_3D ( 'NONE', #104, #52, #179 ) ;
#93 = EDGE_CURVE ( 'NONE', #9, #30, #21, .T. ) ;
#94 = DATE_AND_TIME ( #96, #248 ) ;
#95 = CIRCLE ( 'NONE', #240, 6.000000000000000888 ) ;
#96 = CALENDAR_DATE ( 2022, 7, 7 ) ;
#97 = LOCAL_TIME ( 19, 37, 26.00000000000000000, #188 ) ;
#98 = APPROVAL_DATE_TIME ( #39, #43 ) ;
#99 = CYLINDRICAL_SURFACE ( 'NONE', #127, 3.250000000000000444 ) ;
#100 = DIRECTION ( 'NONE',  ( 1.000000000000000000, 0.000000000000000000, 0.000000000000000000 ) ) ;
#101 = DATE_AND_TIME ( #194, #182 ) ;
#102 = DIRECTION ( 'NONE',  ( 1.000000000000000000, 0.000000000000000000, 0.000000000000000000 ) ) ;
#103 = COORDINATED_UNIVERSAL_TIME_OFFSET ( 1, 0, .AHEAD. ) ;
#104 = CARTESIAN_POINT ( 'NONE',  ( 0.000000000000000000, 0.000000000000000000, 5.000000000000000000 ) ) ;
#105 = ORIENTED_EDGE ( 'NONE', *, *, #229, .F. ) ;
#106 = APPROVAL ( #56, 'NEURÈENÝ' ) ;
#107 = ORIENTED_EDGE ( 'NONE', *, *, #87, .F. ) ;
#108 = CYLINDRICAL_SURFACE ( 'NONE', #163, 3.250000000000000444 ) ;
#109 = ORIENTED_EDGE ( 'NONE', *, *, #121, .T. ) ;
#110 = CIRCLE ( 'NONE', #122, 3.250000000000000444 ) ;
#111 = SHAPE_DEFINITION_REPRESENTATION ( #160, #152 ) ;
#112 = PERSON_AND_ORGANIZATION_ROLE ( 'creator' ) ;
#113 = PERSON_AND_ORGANIZATION ( #67, #242 ) ;
#114 = APPROVAL_STATUS ( 'not_yet_approved' ) ;
#115 = CARTESIAN_POINT ( 'NONE',  ( 0.000000000000000000, 0.000000000000000000, 5.000000000000000000 ) ) ;
#116 = DIRECTION ( 'NONE',  ( 1.000000000000000000, 0.000000000000000000, -0.000000000000000000 ) ) ;
#117 = PERSON_AND_ORGANIZATION_ROLE ( 'creator' ) ;
#118 = CARTESIAN_POINT ( 'NONE',  ( 0.000000000000000000, 0.000000000000000000, 205.0000000000000284 ) ) ;
#119 = EDGE_CURVE ( 'NONE', #62, #222, #210, .T. ) ;
#120 = CYLINDRICAL_SURFACE ( 'NONE', #15, 6.000000000000000888 ) ;
#121 = EDGE_CURVE ( 'NONE', #62, #84, #95, .T. ) ;
#122 = AXIS2_PLACEMENT_3D ( 'NONE', #246, #185, #225 ) ;
#123 = ORIENTED_EDGE ( 'NONE', *, *, #81, .T. ) ;
#124 = EDGE_LOOP ( 'NONE', ( #105, #184, #249, #107 ) ) ;
#125 = AXIS2_PLACEMENT_3D ( 'NONE', #156, #19, #116 ) ;
#126 = ADVANCED_FACE ( 'NONE', ( #177 ), #120, .T. ) ;
#127 = AXIS2_PLACEMENT_3D ( 'NONE', #118, #24, #55 ) ;
#128 = DIRECTION ( 'NONE',  ( 0.000000000000000000, 0.000000000000000000, 1.000000000000000000 ) ) ;
#129 = VERTEX_POINT ( 'NONE', #154 ) ;
#130 = ADVANCED_FACE ( 'NONE', ( #231, #41 ), #76, .T. ) ;
#131 = PERSON_AND_ORGANIZATION ( #67, #242 ) ;
#132 = APPROVAL_STATUS ( 'not_yet_approved' ) ;
#133 = DIRECTION ( 'NONE',  ( 0.000000000000000000, 0.000000000000000000, 1.000000000000000000 ) ) ;
#134 = CARTESIAN_POINT ( 'NONE',  ( 0.000000000000000000, 0.000000000000000000, 0.000000000000000000 ) ) ;
#135 = DIRECTION ( 'NONE',  ( 0.000000000000000000, 0.000000000000000000, 1.000000000000000000 ) ) ;
#136 = PERSON_AND_ORGANIZATION_ROLE ( 'design_owner' ) ;
#137 = DIRECTION ( 'NONE',  ( -0.000000000000000000, -0.000000000000000000, -1.000000000000000000 ) ) ;
#138 = DIRECTION ( 'NONE',  ( -0.000000000000000000, -0.000000000000000000, -1.000000000000000000 ) ) ;
#139 = DIRECTION ( 'NONE',  ( -0.000000000000000000, -0.000000000000000000, -1.000000000000000000 ) ) ;
#140 = CC_DESIGN_SECURITY_CLASSIFICATION ( #71, ( #234 ) ) ;
#141 = CARTESIAN_POINT ( 'NONE',  ( 0.000000000000000000, 0.000000000000000000, 5.000000000000000000 ) ) ;
#142 = ORIENTED_EDGE ( 'NONE', *, *, #229, .T. ) ;
#143 = MANIFOLD_SOLID_BREP ( 'Pøidat vysunutím3', #22 ) ;
#144 = EDGE_LOOP ( 'NONE', ( #183, #142 ) ) ;
#145 = DIRECTION ( 'NONE',  ( -1.000000000000000000, 0.000000000000000000, 0.000000000000000000 ) ) ;
#146 = LOCAL_TIME ( 19, 37, 26.00000000000000000, #2 ) ;
#147 = DIRECTION ( 'NONE',  ( 1.000000000000000000, 0.000000000000000000, 0.000000000000000000 ) ) ;
#148 = CC_DESIGN_PERSON_AND_ORGANIZATION_ASSIGNMENT ( #232, #117, ( #69 ) ) ;
#149 = COORDINATED_UNIVERSAL_TIME_OFFSET ( 1, 0, .AHEAD. ) ;
#150 = EDGE_CURVE ( 'NONE', #84, #62, #49, .T. ) ;
#151 = DATE_AND_TIME ( #228, #97 ) ;
#152 = ADVANCED_BREP_SHAPE_REPRESENTATION ( '0df1', ( #143, #42 ), #61 ) ;
#153 = CARTESIAN_POINT ( 'NONE',  ( 0.000000000000000000, 0.000000000000000000, 5.000000000000000000 ) ) ;
#154 = CARTESIAN_POINT ( 'NONE',  ( 6.000000000000000888, 7.347880794884120722E-16, 0.000000000000000000 ) ) ;
#155 = DIRECTION ( 'NONE',  ( 1.000000000000000000, 0.000000000000000000, 0.000000000000000000 ) ) ;
#156 = CARTESIAN_POINT ( 'NONE',  ( 0.000000000000000000, 0.000000000000000000, 5.000000000000000000 ) ) ;
#157 = DIRECTION ( 'NONE',  ( 0.000000000000000000, 0.000000000000000000, 1.000000000000000000 ) ) ;
#158 = PERSON_AND_ORGANIZATION ( #67, #242 ) ;
#159 = DIRECTION ( 'NONE',  ( 0.000000000000000000, 0.000000000000000000, 1.000000000000000000 ) ) ;
#160 = PRODUCT_DEFINITION_SHAPE ( 'NONE', 'NONE',  #69 ) ;
#161 = DIRECTION ( 'NONE',  ( -0.000000000000000000, -0.000000000000000000, -1.000000000000000000 ) ) ;
#162 = EDGE_LOOP ( 'NONE', ( #46, #202 ) ) ;
#163 = AXIS2_PLACEMENT_3D ( 'NONE', #64, #167, #145 ) ;
#164 = ADVANCED_FACE ( 'NONE', ( #215 ), #99, .T. ) ;
#165 = ORIENTED_EDGE ( 'NONE', *, *, #93, .F. ) ;
#166 = CARTESIAN_POINT ( 'NONE',  ( -3.250000000000000444, 0.000000000000000000, 205.0000000000000284 ) ) ;
#167 = DIRECTION ( 'NONE',  ( -0.000000000000000000, -0.000000000000000000, -1.000000000000000000 ) ) ;
#168 = PERSON_AND_ORGANIZATION_ROLE ( 'design_supplier' ) ;
#169 = VECTOR ( 'NONE', #73, 1000.000000000000000 ) ;
#170 = LOCAL_TIME ( 19, 37, 26.00000000000000000, #103 ) ;
#171 = APPLICATION_PROTOCOL_DEFINITION ( 'international standard', 'config_control_design', 1994, #187 ) ;
#172 = LINE ( 'NONE', #37, #59 ) ;
#173 = CC_DESIGN_PERSON_AND_ORGANIZATION_ASSIGNMENT ( #131, #91, ( #71 ) ) ;
#174 = DIRECTION ( 'NONE',  ( 1.000000000000000000, 0.000000000000000000, 0.000000000000000000 ) ) ;
#175 = CARTESIAN_POINT ( 'NONE',  ( 0.000000000000000000, 0.000000000000000000, 0.000000000000000000 ) ) ;
#176 = CYLINDRICAL_SURFACE ( 'NONE', #196, 6.000000000000000888 ) ;
#177 = FACE_OUTER_BOUND ( 'NONE', #63, .T. ) ;
#178 = APPROVAL_ROLE ( '' ) ;
#179 = DIRECTION ( 'NONE',  ( 1.000000000000000000, 0.000000000000000000, 0.000000000000000000 ) ) ;
#180 = CIRCLE ( 'NONE', #85, 6.000000000000000888 ) ;
#181 = ORIENTED_EDGE ( 'NONE', *, *, #207, .F. ) ;
#182 = LOCAL_TIME ( 19, 37, 26.00000000000000000, #197 ) ;
#183 = ORIENTED_EDGE ( 'NONE', *, *, #224, .T. ) ;
#184 = ORIENTED_EDGE ( 'NONE', *, *, #93, .T. ) ;
#185 = DIRECTION ( 'NONE',  ( 0.000000000000000000, 0.000000000000000000, 1.000000000000000000 ) ) ;
#186 = CIRCLE ( 'NONE', #60, 3.250000000000000444 ) ;
#187 = APPLICATION_CONTEXT ( 'configuration controlled 3d designs of mechanical parts and assemblies' ) ;
#188 = COORDINATED_UNIVERSAL_TIME_OFFSET ( 1, 0, .AHEAD. ) ;
#189 = SECURITY_CLASSIFICATION_LEVEL ( 'unclassified' ) ;
#190 = APPROVAL_ROLE ( '' ) ;
#191 = DIRECTION ( 'NONE',  ( -1.000000000000000000, 0.000000000000000000, 0.000000000000000000 ) ) ;
#192 = CC_DESIGN_PERSON_AND_ORGANIZATION_ASSIGNMENT ( #20, #136, ( #247 ) ) ;
#193 = FACE_OUTER_BOUND ( 'NONE', #144, .T. ) ;
#194 = CALENDAR_DATE ( 2022, 7, 7 ) ;
#195 = CARTESIAN_POINT ( 'NONE',  ( 0.000000000000000000, 0.000000000000000000, 205.0000000000000284 ) ) ;
#196 = AXIS2_PLACEMENT_3D ( 'NONE', #153, #138, #216 ) ;
#197 = COORDINATED_UNIVERSAL_TIME_OFFSET ( 1, 0, .AHEAD. ) ;
#198 = CARTESIAN_POINT ( 'NONE',  ( 0.000000000000000000, 0.000000000000000000, 205.0000000000000284 ) ) ;
#199 = AXIS2_PLACEMENT_3D ( 'NONE', #209, #133, #72 ) ;
#200 = PRODUCT_RELATED_PRODUCT_CATEGORY ( 'detail', '', ( #247 ) ) ;
#201 = ORIENTED_EDGE ( 'NONE', *, *, #150, .T. ) ;
#202 = ORIENTED_EDGE ( 'NONE', *, *, #38, .F. ) ;
#203 = VECTOR ( 'NONE', #139, 1000.000000000000000 ) ;
#204 = EDGE_LOOP ( 'NONE', ( #109, #201 ) ) ;
#205 = ORIENTED_EDGE ( 'NONE', *, *, #38, .T. ) ;
#206 = APPROVAL_PERSON_ORGANIZATION ( #158, #106, #178 ) ;
#207 = EDGE_CURVE ( 'NONE', #84, #129, #172, .T. ) ;
#208 = APPROVAL_DATE_TIME ( #151, #238 ) ;
#209 = CARTESIAN_POINT ( 'NONE',  ( 0.000000000000000000, 0.000000000000000000, 205.0000000000000284 ) ) ;
#210 = LINE ( 'NONE', #58, #203 ) ;
#211 = ADVANCED_FACE ( 'NONE', ( #193 ), #78, .T. ) ;
#212 = DATE_AND_TIME ( #79, #146 ) ;
#213 = DIRECTION ( 'NONE',  ( 0.000000000000000000, 0.000000000000000000, 1.000000000000000000 ) ) ;
#214 = CALENDAR_DATE ( 2022, 7, 7 ) ;
#215 = FACE_OUTER_BOUND ( 'NONE', #124, .T. ) ;
#216 = DIRECTION ( 'NONE',  ( -1.000000000000000000, 0.000000000000000000, 0.000000000000000000 ) ) ;
#217 = AXIS2_PLACEMENT_3D ( 'NONE', #236, #157, #80 ) ;
#218 = CARTESIAN_POINT ( 'NONE',  ( -6.000000000000000888, 0.000000000000000000, 0.000000000000000000 ) ) ;
#219 = CC_DESIGN_APPROVAL ( #238, ( #71 ) ) ;
#220 = CC_DESIGN_PERSON_AND_ORGANIZATION_ASSIGNMENT ( #11, #168, ( #234 ) ) ;
#221 = CC_DESIGN_APPROVAL ( #106, ( #234 ) ) ;
#222 = VERTEX_POINT ( 'NONE', #218 ) ;
#223 = ORIENTED_EDGE ( 'NONE', *, *, #121, .F. ) ;
#224 = EDGE_CURVE ( 'NONE', #7, #9, #35, .T. ) ;
#225 = DIRECTION ( 'NONE',  ( 1.000000000000000000, 0.000000000000000000, 0.000000000000000000 ) ) ;
#226 = CARTESIAN_POINT ( 'NONE',  ( 3.250000000000000444, 3.980102097228898231E-16, 5.000000000000000000 ) ) ;
#227 = AXIS2_PLACEMENT_3D ( 'NONE', #198, #3, #155 ) ;
#228 = CALENDAR_DATE ( 2022, 7, 7 ) ;
#229 = EDGE_CURVE ( 'NONE', #9, #7, #13, .T. ) ;
#230 = DIRECTION ( 'NONE',  ( 0.000000000000000000, 0.000000000000000000, 1.000000000000000000 ) ) ;
#231 = FACE_BOUND ( 'NONE', #89, .T. ) ;
#232 = PERSON_AND_ORGANIZATION ( #67, #242 ) ;
#233 = CARTESIAN_POINT ( 'NONE',  ( -3.250000000000000444, 0.000000000000000000, 205.0000000000000284 ) ) ;
#234 = PRODUCT_DEFINITION_FORMATION_WITH_SPECIFIED_SOURCE ( 'LIBOVOLNÝ', '', #247, .NOT_KNOWN. ) ;
#235 = FACE_OUTER_BOUND ( 'NONE', #10, .T. ) ;
#236 = CARTESIAN_POINT ( 'NONE',  ( 0.000000000000000000, 0.000000000000000000, 0.000000000000000000 ) ) ;
#237 = DIRECTION ( 'NONE',  ( 1.000000000000000000, 0.000000000000000000, -0.000000000000000000 ) ) ;
#238 = APPROVAL ( #132, 'NEURÈENÝ' ) ;
#239 = APPROVAL_DATE_TIME ( #212, #106 ) ;
#240 = AXIS2_PLACEMENT_3D ( 'NONE', #141, #213, #102 ) ;
#241 = DIRECTION ( 'NONE',  ( 0.000000000000000000, 0.000000000000000000, 1.000000000000000000 ) ) ;
#242 = ORGANIZATION ( 'NEURÈENÝ', 'NEURÈENÝ', '' ) ;
#243 = ORIENTED_EDGE ( 'NONE', *, *, #224, .F. ) ;
#244 = ORIENTED_EDGE ( 'NONE', *, *, #119, .F. ) ;
#245 = FACE_OUTER_BOUND ( 'NONE', #27, .T. ) ;
#246 = CARTESIAN_POINT ( 'NONE',  ( 0.000000000000000000, 0.000000000000000000, 5.000000000000000000 ) ) ;
#247 = PRODUCT ( '0df1', '0df1', '', ( #51 ) ) ;
#248 = LOCAL_TIME ( 19, 37, 26.00000000000000000, #149 ) ;
#249 = ORIENTED_EDGE ( 'NONE', *, *, #23, .T. ) ;
#250 = ADVANCED_FACE ( 'NONE', ( #235 ), #176, .T. ) ;
#251 = APPROVAL_PERSON_ORGANIZATION ( #34, #43, #190 ) ;
#252 =( NAMED_UNIT ( * ) PLANE_ANGLE_UNIT ( ) SI_UNIT ( $, .RADIAN. ) );
#253 = DIRECTION ( 'NONE',  ( 1.000000000000000000, 0.000000000000000000, 0.000000000000000000 ) ) ;
#254 = APPLICATION_PROTOCOL_DEFINITION ( 'international standard', 'config_control_design', 1994, #5 ) ;
#255 = FACE_OUTER_BOUND ( 'NONE', #162, .T. ) ;
ENDSEC;
END-ISO-10303-21;
