ISO-10303-21;
HEADER;
FILE_DESCRIPTION (( 'STEP AP203' ),
    '1' );
FILE_NAME ('6da9.STEP',
    '2022-07-07T17:11:08',
    ( '' ),
    ( '' ),
    'SwSTEP 2.0',
    'SolidWorks 2019',
    '' );
FILE_SCHEMA (( 'CONFIG_CONTROL_DESIGN' ));
ENDSEC;

DATA;
#1 = PERSON_AND_ORGANIZATION ( #146, #52 ) ;
#2 = EDGE_CURVE ( 'NONE', #68, #10, #110, .T. ) ;
#3 = DIRECTION ( 'NONE',  ( 0.000000000000000000, 0.000000000000000000, 1.000000000000000000 ) ) ;
#4 = DIRECTION ( 'NONE',  ( 1.000000000000000000, 0.000000000000000000, -0.000000000000000000 ) ) ;
#5 = CYLINDRICAL_SURFACE ( 'NONE', #104, 11.00000000000000000 ) ;
#6 = APPROVAL_PERSON_ORGANIZATION ( #216, #181, #63 ) ;
#7 = DIRECTION ( 'NONE',  ( 0.000000000000000000, 0.000000000000000000, 1.000000000000000000 ) ) ;
#8 = FACE_OUTER_BOUND ( 'NONE', #103, .T. ) ;
#9 = AXIS2_PLACEMENT_3D ( 'NONE', #225, #3, #209 ) ;
#10 = VERTEX_POINT ( 'NONE', #92 ) ;
#11 = CARTESIAN_POINT ( 'NONE',  ( 0.000000000000000000, 0.000000000000000000, 7.000000000000000000 ) ) ;
#12 = ORIENTED_EDGE ( 'NONE', *, *, #197, .T. ) ;
#13 = APPROVAL_PERSON_ORGANIZATION ( #138, #157, #77 ) ;
#14 = MANIFOLD_SOLID_BREP ( 'Pøidat vysunutím3', #76 ) ;
#15 = MECHANICAL_CONTEXT ( 'NONE', #29, 'mechanical' ) ;
#16 = PERSON_AND_ORGANIZATION_ROLE ( 'design_owner' ) ;
#17 = APPROVAL_DATE_TIME ( #142, #70 ) ;
#18 = CALENDAR_DATE ( 2022, 7, 7 ) ;
#19 = CC_DESIGN_APPROVAL ( #70, ( #202 ) ) ;
#20 = DIRECTION ( 'NONE',  ( 0.000000000000000000, 0.000000000000000000, 1.000000000000000000 ) ) ;
#21 = CYLINDRICAL_SURFACE ( 'NONE', #152, 7.500000000000000000 ) ;
#22 = ADVANCED_FACE ( 'NONE', ( #8 ), #91, .T. ) ;
#23 = FACE_BOUND ( 'NONE', #114, .T. ) ;
#24 = EDGE_LOOP ( 'NONE', ( #155, #12 ) ) ;
#25 = DIRECTION ( 'NONE',  ( 0.000000000000000000, 0.000000000000000000, 1.000000000000000000 ) ) ;
#26 = EDGE_LOOP ( 'NONE', ( #130, #250, #83, #132 ) ) ;
#27 = ADVANCED_FACE ( 'NONE', ( #226 ), #49, .T. ) ;
#28 = ORIENTED_EDGE ( 'NONE', *, *, #185, .F. ) ;
#29 = APPLICATION_CONTEXT ( 'configuration controlled 3d designs of mechanical parts and assemblies' ) ;
#30 = ORIENTED_EDGE ( 'NONE', *, *, #192, .F. ) ;
#31 = EDGE_CURVE ( 'NONE', #219, #68, #45, .T. ) ;
#32 = AXIS2_PLACEMENT_3D ( 'NONE', #65, #151, #228 ) ;
#33 = LOCAL_TIME ( 19, 11, 8.000000000000000000, #218 ) ;
#34 = COORDINATED_UNIVERSAL_TIME_OFFSET ( 1, 0, .AHEAD. ) ;
#35 = EDGE_CURVE ( 'NONE', #211, #112, #51, .T. ) ;
#36 = CALENDAR_DATE ( 2022, 7, 7 ) ;
#37 = PERSON_AND_ORGANIZATION ( #146, #52 ) ;
#38 = EDGE_CURVE ( 'NONE', #219, #73, #141, .T. ) ;
#39 = DIRECTION ( 'NONE',  ( 1.000000000000000000, 0.000000000000000000, 0.000000000000000000 ) ) ;
#40 = CARTESIAN_POINT ( 'NONE',  ( 0.000000000000000000, 0.000000000000000000, 0.000000000000000000 ) ) ;
#41 = CARTESIAN_POINT ( 'NONE',  ( -11.00000000000000000, 0.000000000000000000, 7.000000000000000000 ) ) ;
#42 = CC_DESIGN_PERSON_AND_ORGANIZATION_ASSIGNMENT ( #1, #16, ( #118 ) ) ;
#43 = CARTESIAN_POINT ( 'NONE',  ( 11.00000000000000000, 1.347111479062088405E-15, 7.000000000000000000 ) ) ;
#44 = CIRCLE ( 'NONE', #32, 7.500000000000000000 ) ;
#45 = LINE ( 'NONE', #93, #251 ) ;
#46 = DIRECTION ( 'NONE',  ( 1.000000000000000000, 0.000000000000000000, 0.000000000000000000 ) ) ;
#47 = DIRECTION ( 'NONE',  ( -0.000000000000000000, -0.000000000000000000, -1.000000000000000000 ) ) ;
#48 = ORIENTED_EDGE ( 'NONE', *, *, #50, .F. ) ;
#49 = CYLINDRICAL_SURFACE ( 'NONE', #54, 7.500000000000000000 ) ;
#50 = EDGE_CURVE ( 'NONE', #73, #219, #44, .T. ) ;
#51 = LINE ( 'NONE', #232, #237 ) ;
#52 = ORGANIZATION ( 'NEURÈENÝ', 'NEURÈENÝ', '' ) ;
#53 = DESIGN_CONTEXT ( 'detailed design', #101, 'design' ) ;
#54 = AXIS2_PLACEMENT_3D ( 'NONE', #249, #194, #135 ) ;
#55 = DATE_TIME_ROLE ( 'classification_date' ) ;
#56 =( NAMED_UNIT ( * ) PLANE_ANGLE_UNIT ( ) SI_UNIT ( $, .RADIAN. ) );
#57 = DIRECTION ( 'NONE',  ( 1.000000000000000000, 0.000000000000000000, 0.000000000000000000 ) ) ;
#58 = ADVANCED_FACE ( 'NONE', ( #133 ), #5, .T. ) ;
#59 = DIRECTION ( 'NONE',  ( -1.000000000000000000, 0.000000000000000000, 0.000000000000000000 ) ) ;
#60 = SECURITY_CLASSIFICATION ( '', '', #220 ) ;
#61 = CARTESIAN_POINT ( 'NONE',  ( 0.000000000000000000, 0.000000000000000000, 167.0000000000000000 ) ) ;
#62 = ORIENTED_EDGE ( 'NONE', *, *, #35, .T. ) ;
#63 = APPROVAL_ROLE ( '' ) ;
#64 = CARTESIAN_POINT ( 'NONE',  ( 0.000000000000000000, 0.000000000000000000, 0.000000000000000000 ) ) ;
#65 = CARTESIAN_POINT ( 'NONE',  ( 0.000000000000000000, 0.000000000000000000, 167.0000000000000000 ) ) ;
#66 = ORIENTED_EDGE ( 'NONE', *, *, #217, .T. ) ;
#67 = CIRCLE ( 'NONE', #169, 11.00000000000000000 ) ;
#68 = VERTEX_POINT ( 'NONE', #81 ) ;
#69 = DIRECTION ( 'NONE',  ( 1.000000000000000000, 0.000000000000000000, -0.000000000000000000 ) ) ;
#70 = APPROVAL ( #179, 'NEURÈENÝ' ) ;
#71 = EDGE_CURVE ( 'NONE', #73, #10, #167, .T. ) ;
#72 = APPROVAL_ROLE ( '' ) ;
#73 = VERTEX_POINT ( 'NONE', #244 ) ;
#74 = DATE_AND_TIME ( #36, #165 ) ;
#75 = CARTESIAN_POINT ( 'NONE',  ( 0.000000000000000000, 0.000000000000000000, 0.000000000000000000 ) ) ;
#76 = CLOSED_SHELL ( 'NONE', ( #27, #58, #98, #106, #163, #208, #22 ) ) ;
#77 = APPROVAL_ROLE ( '' ) ;
#78 = CARTESIAN_POINT ( 'NONE',  ( 0.000000000000000000, 0.000000000000000000, 0.000000000000000000 ) ) ;
#79 = CARTESIAN_POINT ( 'NONE',  ( 0.000000000000000000, 0.000000000000000000, 7.000000000000000000 ) ) ;
#80 = APPROVAL_DATE_TIME ( #204, #181 ) ;
#81 = CARTESIAN_POINT ( 'NONE',  ( 7.500000000000000000, 9.184850993605147944E-16, 7.000000000000000000 ) ) ;
#82 = LOCAL_TIME ( 19, 11, 8.000000000000000000, #186 ) ;
#83 = ORIENTED_EDGE ( 'NONE', *, *, #2, .T. ) ;
#84 = VECTOR ( 'NONE', #129, 1000.000000000000000 ) ;
#85 = DIRECTION ( 'NONE',  ( -0.000000000000000000, -0.000000000000000000, -1.000000000000000000 ) ) ;
#86 = EDGE_CURVE ( 'NONE', #10, #68, #90, .T. ) ;
#87 = PRODUCT_DEFINITION_SHAPE ( 'NONE', 'NONE',  #202 ) ;
#88 = CARTESIAN_POINT ( 'NONE',  ( 0.000000000000000000, 0.000000000000000000, 167.0000000000000000 ) ) ;
#89 =( LENGTH_UNIT ( ) NAMED_UNIT ( * ) SI_UNIT ( .MILLI., .METRE. ) );
#90 = CIRCLE ( 'NONE', #235, 7.500000000000000000 ) ;
#91 = PLANE ( 'NONE',  #172 ) ;
#92 = CARTESIAN_POINT ( 'NONE',  ( -7.500000000000000000, 0.000000000000000000, 7.000000000000000000 ) ) ;
#93 = CARTESIAN_POINT ( 'NONE',  ( 7.500000000000000000, 9.184850993605147944E-16, 167.0000000000000000 ) ) ;
#94 = PRODUCT_RELATED_PRODUCT_CATEGORY ( 'detail', '', ( #118 ) ) ;
#95 = CIRCLE ( 'NONE', #182, 11.00000000000000000 ) ;
#96 = PERSON_AND_ORGANIZATION ( #146, #52 ) ;
#97 = COORDINATED_UNIVERSAL_TIME_OFFSET ( 1, 0, .AHEAD. ) ;
#98 = ADVANCED_FACE ( 'NONE', ( #243 ), #109, .T. ) ;
#99 = EDGE_LOOP ( 'NONE', ( #121, #134, #117, #66 ) ) ;
#100 = DATE_TIME_ROLE ( 'creation_date' ) ;
#101 = APPLICATION_CONTEXT ( 'configuration controlled 3d designs of mechanical parts and assemblies' ) ;
#102 = PERSON_AND_ORGANIZATION_ROLE ( 'creator' ) ;
#103 = EDGE_LOOP ( 'NONE', ( #190, #210 ) ) ;
#104 = AXIS2_PLACEMENT_3D ( 'NONE', #79, #184, #59 ) ;
#105 = CC_DESIGN_APPROVAL ( #181, ( #60 ) ) ;
#106 = ADVANCED_FACE ( 'NONE', ( #23, #223 ), #242, .T. ) ;
#107 = SHAPE_DEFINITION_REPRESENTATION ( #87, #137 ) ;
#108 = LINE ( 'NONE', #41, #84 ) ;
#109 = CYLINDRICAL_SURFACE ( 'NONE', #162, 11.00000000000000000 ) ;
#110 = CIRCLE ( 'NONE', #221, 7.500000000000000000 ) ;
#111 = DIRECTION ( 'NONE',  ( 0.000000000000000000, 0.000000000000000000, 1.000000000000000000 ) ) ;
#112 = VERTEX_POINT ( 'NONE', #241 ) ;
#113 = PLANE ( 'NONE',  #183 ) ;
#114 = EDGE_LOOP ( 'NONE', ( #193, #212 ) ) ;
#115 = ORIENTED_EDGE ( 'NONE', *, *, #185, .T. ) ;
#116 =( GEOMETRIC_REPRESENTATION_CONTEXT ( 3 ) GLOBAL_UNCERTAINTY_ASSIGNED_CONTEXT ( ( #188 ) ) GLOBAL_UNIT_ASSIGNED_CONTEXT ( ( #89, #56, #199 ) ) REPRESENTATION_CONTEXT ( 'NONE', 'WORKASPACE' ) );
#117 = ORIENTED_EDGE ( 'NONE', *, *, #192, .T. ) ;
#118 = PRODUCT ( '6da9', '6da9', '', ( #15 ) ) ;
#119 = CALENDAR_DATE ( 2022, 7, 7 ) ;
#120 = APPLICATION_PROTOCOL_DEFINITION ( 'international standard', 'config_control_design', 1994, #29 ) ;
#121 = ORIENTED_EDGE ( 'NONE', *, *, #35, .F. ) ;
#122 = DIRECTION ( 'NONE',  ( 0.000000000000000000, 0.000000000000000000, 1.000000000000000000 ) ) ;
#123 = CC_DESIGN_DATE_AND_TIME_ASSIGNMENT ( #74, #100, ( #202 ) ) ;
#124 = DATE_AND_TIME ( #255, #33 ) ;
#125 = COORDINATED_UNIVERSAL_TIME_OFFSET ( 1, 0, .AHEAD. ) ;
#126 = APPROVAL_PERSON_ORGANIZATION ( #159, #70, #72 ) ;
#127 = CARTESIAN_POINT ( 'NONE',  ( 0.000000000000000000, 0.000000000000000000, 7.000000000000000000 ) ) ;
#128 = APPROVAL_STATUS ( 'not_yet_approved' ) ;
#129 = DIRECTION ( 'NONE',  ( -0.000000000000000000, -0.000000000000000000, -1.000000000000000000 ) ) ;
#130 = ORIENTED_EDGE ( 'NONE', *, *, #38, .F. ) ;
#131 = CARTESIAN_POINT ( 'NONE',  ( -11.00000000000000000, 0.000000000000000000, 0.000000000000000000 ) ) ;
#132 = ORIENTED_EDGE ( 'NONE', *, *, #71, .F. ) ;
#133 = FACE_OUTER_BOUND ( 'NONE', #176, .T. ) ;
#134 = ORIENTED_EDGE ( 'NONE', *, *, #234, .F. ) ;
#135 = DIRECTION ( 'NONE',  ( -1.000000000000000000, 0.000000000000000000, 0.000000000000000000 ) ) ;
#136 = CC_DESIGN_APPROVAL ( #157, ( #207 ) ) ;
#137 = ADVANCED_BREP_SHAPE_REPRESENTATION ( '6da9', ( #14, #215 ), #116 ) ;
#138 = PERSON_AND_ORGANIZATION ( #146, #52 ) ;
#139 = CALENDAR_DATE ( 2022, 7, 7 ) ;
#140 = CC_DESIGN_PERSON_AND_ORGANIZATION_ASSIGNMENT ( #96, #214, ( #60 ) ) ;
#141 = CIRCLE ( 'NONE', #160, 7.500000000000000000 ) ;
#142 = DATE_AND_TIME ( #139, #254 ) ;
#143 = PERSON_AND_ORGANIZATION_ROLE ( 'design_supplier' ) ;
#144 = CC_DESIGN_DATE_AND_TIME_ASSIGNMENT ( #178, #55, ( #60 ) ) ;
#145 = DIRECTION ( 'NONE',  ( -1.000000000000000000, 0.000000000000000000, 0.000000000000000000 ) ) ;
#146 = PERSON ( 'NEURÈENÝ', 'NEURÈENÝ', 'NEURÈENÝ', ('NEURÈENÝ'), ('NEURÈENÝ'), ('NEURÈENÝ') ) ;
#147 = CARTESIAN_POINT ( 'NONE',  ( -11.00000000000000000, 0.000000000000000000, 7.000000000000000000 ) ) ;
#148 = DIRECTION ( 'NONE',  ( -0.000000000000000000, -0.000000000000000000, -1.000000000000000000 ) ) ;
#149 = VERTEX_POINT ( 'NONE', #147 ) ;
#150 = CARTESIAN_POINT ( 'NONE',  ( -7.500000000000000000, 0.000000000000000000, 167.0000000000000000 ) ) ;
#151 = DIRECTION ( 'NONE',  ( 0.000000000000000000, 0.000000000000000000, 1.000000000000000000 ) ) ;
#152 = AXIS2_PLACEMENT_3D ( 'NONE', #61, #85, #187 ) ;
#153 = EDGE_LOOP ( 'NONE', ( #247, #48, #230, #158 ) ) ;
#154 = CC_DESIGN_PERSON_AND_ORGANIZATION_ASSIGNMENT ( #161, #143, ( #207 ) ) ;
#155 = ORIENTED_EDGE ( 'NONE', *, *, #234, .T. ) ;
#156 = DIRECTION ( 'NONE',  ( -0.000000000000000000, -0.000000000000000000, -1.000000000000000000 ) ) ;
#157 = APPROVAL ( #180, 'NEURÈENÝ' ) ;
#158 = ORIENTED_EDGE ( 'NONE', *, *, #86, .T. ) ;
#159 = PERSON_AND_ORGANIZATION ( #146, #52 ) ;
#160 = AXIS2_PLACEMENT_3D ( 'NONE', #88, #171, #245 ) ;
#161 = PERSON_AND_ORGANIZATION ( #146, #52 ) ;
#162 = AXIS2_PLACEMENT_3D ( 'NONE', #127, #148, #145 ) ;
#163 = ADVANCED_FACE ( 'NONE', ( #222 ), #113, .F. ) ;
#164 = LOCAL_TIME ( 19, 11, 8.000000000000000000, #34 ) ;
#165 = LOCAL_TIME ( 19, 11, 8.000000000000000000, #125 ) ;
#166 = CARTESIAN_POINT ( 'NONE',  ( 0.000000000000000000, 0.000000000000000000, 7.000000000000000000 ) ) ;
#167 = LINE ( 'NONE', #150, #200 ) ;
#168 = DIRECTION ( 'NONE',  ( -0.000000000000000000, -0.000000000000000000, -1.000000000000000000 ) ) ;
#169 = AXIS2_PLACEMENT_3D ( 'NONE', #78, #191, #201 ) ;
#170 = CARTESIAN_POINT ( 'NONE',  ( 0.000000000000000000, 0.000000000000000000, 7.000000000000000000 ) ) ;
#171 = DIRECTION ( 'NONE',  ( 0.000000000000000000, 0.000000000000000000, 1.000000000000000000 ) ) ;
#172 = AXIS2_PLACEMENT_3D ( 'NONE', #175, #174, #69 ) ;
#173 = DIRECTION ( 'NONE',  ( 1.000000000000000000, 0.000000000000000000, 0.000000000000000000 ) ) ;
#174 = DIRECTION ( 'NONE',  ( 0.000000000000000000, 0.000000000000000000, 1.000000000000000000 ) ) ;
#175 = CARTESIAN_POINT ( 'NONE',  ( 0.000000000000000000, 0.000000000000000000, 167.0000000000000000 ) ) ;
#176 = EDGE_LOOP ( 'NONE', ( #224, #62, #115, #30 ) ) ;
#177 = CC_DESIGN_PERSON_AND_ORGANIZATION_ASSIGNMENT ( #196, #253, ( #202 ) ) ;
#178 = DATE_AND_TIME ( #119, #164 ) ;
#179 = APPROVAL_STATUS ( 'not_yet_approved' ) ;
#180 = APPROVAL_STATUS ( 'not_yet_approved' ) ;
#181 = APPROVAL ( #128, 'NEURÈENÝ' ) ;
#182 = AXIS2_PLACEMENT_3D ( 'NONE', #64, #227, #46 ) ;
#183 = AXIS2_PLACEMENT_3D ( 'NONE', #40, #20, #4 ) ;
#184 = DIRECTION ( 'NONE',  ( -0.000000000000000000, -0.000000000000000000, -1.000000000000000000 ) ) ;
#185 = EDGE_CURVE ( 'NONE', #112, #213, #67, .T. ) ;
#186 = COORDINATED_UNIVERSAL_TIME_OFFSET ( 1, 0, .AHEAD. ) ;
#187 = DIRECTION ( 'NONE',  ( -1.000000000000000000, 0.000000000000000000, 0.000000000000000000 ) ) ;
#188 = UNCERTAINTY_MEASURE_WITH_UNIT (LENGTH_MEASURE( 1.000000000000000082E-05 ), #89, 'distance_accuracy_value', 'NONE');
#189 = CARTESIAN_POINT ( 'NONE',  ( 0.000000000000000000, 0.000000000000000000, 7.000000000000000000 ) ) ;
#190 = ORIENTED_EDGE ( 'NONE', *, *, #50, .T. ) ;
#191 = DIRECTION ( 'NONE',  ( 0.000000000000000000, 0.000000000000000000, 1.000000000000000000 ) ) ;
#192 = EDGE_CURVE ( 'NONE', #149, #213, #108, .T. ) ;
#193 = ORIENTED_EDGE ( 'NONE', *, *, #86, .F. ) ;
#194 = DIRECTION ( 'NONE',  ( -0.000000000000000000, -0.000000000000000000, -1.000000000000000000 ) ) ;
#195 = AXIS2_PLACEMENT_3D ( 'NONE', #166, #111, #246 ) ;
#196 = PERSON_AND_ORGANIZATION ( #146, #52 ) ;
#197 = EDGE_CURVE ( 'NONE', #211, #149, #233, .T. ) ;
#198 = CC_DESIGN_PERSON_AND_ORGANIZATION_ASSIGNMENT ( #37, #102, ( #207 ) ) ;
#199 =( NAMED_UNIT ( * ) SI_UNIT ( $, .STERADIAN. ) SOLID_ANGLE_UNIT ( ) );
#200 = VECTOR ( 'NONE', #168, 1000.000000000000000 ) ;
#201 = DIRECTION ( 'NONE',  ( 1.000000000000000000, 0.000000000000000000, 0.000000000000000000 ) ) ;
#202 = PRODUCT_DEFINITION ( 'NEZNÁMÝ', '', #207, #53 ) ;
#203 = FACE_OUTER_BOUND ( 'NONE', #153, .T. ) ;
#204 = DATE_AND_TIME ( #18, #82 ) ;
#205 = CARTESIAN_POINT ( 'NONE',  ( 7.500000000000000000, 9.184850993605147944E-16, 167.0000000000000000 ) ) ;
#206 = DIRECTION ( 'NONE',  ( 1.000000000000000000, 0.000000000000000000, 0.000000000000000000 ) ) ;
#207 = PRODUCT_DEFINITION_FORMATION_WITH_SPECIFIED_SOURCE ( 'LIBOVOLNÝ', '', #118, .NOT_KNOWN. ) ;
#208 = ADVANCED_FACE ( 'NONE', ( #203 ), #21, .T. ) ;
#209 = DIRECTION ( 'NONE',  ( 1.000000000000000000, 0.000000000000000000, -0.000000000000000000 ) ) ;
#210 = ORIENTED_EDGE ( 'NONE', *, *, #38, .T. ) ;
#211 = VERTEX_POINT ( 'NONE', #43 ) ;
#212 = ORIENTED_EDGE ( 'NONE', *, *, #2, .F. ) ;
#213 = VERTEX_POINT ( 'NONE', #131 ) ;
#214 = PERSON_AND_ORGANIZATION_ROLE ( 'classification_officer' ) ;
#215 = AXIS2_PLACEMENT_3D ( 'NONE', #75, #122, #39 ) ;
#216 = PERSON_AND_ORGANIZATION ( #146, #52 ) ;
#217 = EDGE_CURVE ( 'NONE', #213, #112, #95, .T. ) ;
#218 = COORDINATED_UNIVERSAL_TIME_OFFSET ( 1, 0, .AHEAD. ) ;
#219 = VERTEX_POINT ( 'NONE', #205 ) ;
#220 = SECURITY_CLASSIFICATION_LEVEL ( 'unclassified' ) ;
#221 = AXIS2_PLACEMENT_3D ( 'NONE', #11, #231, #206 ) ;
#222 = FACE_OUTER_BOUND ( 'NONE', #240, .T. ) ;
#223 = FACE_OUTER_BOUND ( 'NONE', #24, .T. ) ;
#224 = ORIENTED_EDGE ( 'NONE', *, *, #197, .F. ) ;
#225 = CARTESIAN_POINT ( 'NONE',  ( 0.000000000000000000, 0.000000000000000000, 7.000000000000000000 ) ) ;
#226 = FACE_OUTER_BOUND ( 'NONE', #26, .T. ) ;
#227 = DIRECTION ( 'NONE',  ( 0.000000000000000000, 0.000000000000000000, 1.000000000000000000 ) ) ;
#228 = DIRECTION ( 'NONE',  ( 1.000000000000000000, 0.000000000000000000, 0.000000000000000000 ) ) ;
#229 = AXIS2_PLACEMENT_3D ( 'NONE', #189, #7, #173 ) ;
#230 = ORIENTED_EDGE ( 'NONE', *, *, #71, .T. ) ;
#231 = DIRECTION ( 'NONE',  ( 0.000000000000000000, 0.000000000000000000, 1.000000000000000000 ) ) ;
#232 = CARTESIAN_POINT ( 'NONE',  ( 11.00000000000000000, 1.347111479062088405E-15, 7.000000000000000000 ) ) ;
#233 = CIRCLE ( 'NONE', #195, 11.00000000000000000 ) ;
#234 = EDGE_CURVE ( 'NONE', #149, #211, #239, .T. ) ;
#235 = AXIS2_PLACEMENT_3D ( 'NONE', #170, #25, #57 ) ;
#236 = APPLICATION_PROTOCOL_DEFINITION ( 'international standard', 'config_control_design', 1994, #101 ) ;
#237 = VECTOR ( 'NONE', #47, 1000.000000000000000 ) ;
#238 = APPROVAL_DATE_TIME ( #124, #157 ) ;
#239 = CIRCLE ( 'NONE', #229, 11.00000000000000000 ) ;
#240 = EDGE_LOOP ( 'NONE', ( #252, #28 ) ) ;
#241 = CARTESIAN_POINT ( 'NONE',  ( 11.00000000000000000, 1.347111479062088405E-15, 0.000000000000000000 ) ) ;
#242 = PLANE ( 'NONE',  #9 ) ;
#243 = FACE_OUTER_BOUND ( 'NONE', #99, .T. ) ;
#244 = CARTESIAN_POINT ( 'NONE',  ( -7.500000000000000000, 0.000000000000000000, 167.0000000000000000 ) ) ;
#245 = DIRECTION ( 'NONE',  ( 1.000000000000000000, 0.000000000000000000, 0.000000000000000000 ) ) ;
#246 = DIRECTION ( 'NONE',  ( 1.000000000000000000, 0.000000000000000000, 0.000000000000000000 ) ) ;
#247 = ORIENTED_EDGE ( 'NONE', *, *, #31, .F. ) ;
#248 = CC_DESIGN_SECURITY_CLASSIFICATION ( #60, ( #207 ) ) ;
#249 = CARTESIAN_POINT ( 'NONE',  ( 0.000000000000000000, 0.000000000000000000, 167.0000000000000000 ) ) ;
#250 = ORIENTED_EDGE ( 'NONE', *, *, #31, .T. ) ;
#251 = VECTOR ( 'NONE', #156, 1000.000000000000000 ) ;
#252 = ORIENTED_EDGE ( 'NONE', *, *, #217, .F. ) ;
#253 = PERSON_AND_ORGANIZATION_ROLE ( 'creator' ) ;
#254 = LOCAL_TIME ( 19, 11, 8.000000000000000000, #97 ) ;
#255 = CALENDAR_DATE ( 2022, 7, 7 ) ;
ENDSEC;
END-ISO-10303-21;
