ISO-10303-21;
HEADER;
FILE_DESCRIPTION (( 'STEP AP203' ),
    '1' );
FILE_NAME ('8331.STEP',
    '2022-07-07T17:20:57',
    ( '' ),
    ( '' ),
    'SwSTEP 2.0',
    'SolidWorks 2019',
    '' );
FILE_SCHEMA (( 'CONFIG_CONTROL_DESIGN' ));
ENDSEC;

DATA;
#1 = PLANE ( 'NONE',  #168 ) ;
#2 = FACE_OUTER_BOUND ( 'NONE', #166, .T. ) ;
#3 = DATE_AND_TIME ( #98, #117 ) ;
#4 = DIRECTION ( 'NONE',  ( -1.000000000000000000, 0.000000000000000000, 0.000000000000000000 ) ) ;
#5 = APPLICATION_CONTEXT ( 'configuration controlled 3d designs of mechanical parts and assemblies' ) ;
#6 = CALENDAR_DATE ( 2022, 7, 7 ) ;
#7 = FACE_OUTER_BOUND ( 'NONE', #154, .T. ) ;
#8 = AXIS2_PLACEMENT_3D ( 'NONE', #84, #45, #160 ) ;
#9 = CARTESIAN_POINT ( 'NONE',  ( -5.750000000000000000, 0.000000000000000000, 322.0000000000000000 ) ) ;
#10 = COORDINATED_UNIVERSAL_TIME_OFFSET ( 1, 0, .AHEAD. ) ;
#11 = CC_DESIGN_PERSON_AND_ORGANIZATION_ASSIGNMENT ( #165, #32, ( #209 ) ) ;
#12 = ORIENTED_EDGE ( 'NONE', *, *, #144, .T. ) ;
#13 = EDGE_CURVE ( 'NONE', #116, #17, #254, .T. ) ;
#14 = PERSON_AND_ORGANIZATION_ROLE ( 'classification_officer' ) ;
#15 = ORIENTED_EDGE ( 'NONE', *, *, #39, .T. ) ;
#16 = DIRECTION ( 'NONE',  ( 0.000000000000000000, 0.000000000000000000, 1.000000000000000000 ) ) ;
#17 = VERTEX_POINT ( 'NONE', #143 ) ;
#18 = ORIENTED_EDGE ( 'NONE', *, *, #56, .T. ) ;
#19 = AXIS2_PLACEMENT_3D ( 'NONE', #71, #203, #112 ) ;
#20 = LOCAL_TIME ( 19, 20, 57.00000000000000000, #246 ) ;
#21 = ORGANIZATION ( 'NEURÈENÝ', 'NEURÈENÝ', '' ) ;
#22 =( LENGTH_UNIT ( ) NAMED_UNIT ( * ) SI_UNIT ( .MILLI., .METRE. ) );
#23 = DIRECTION ( 'NONE',  ( -1.000000000000000000, 0.000000000000000000, 0.000000000000000000 ) ) ;
#24 = PLANE ( 'NONE',  #96 ) ;
#25 = DATE_TIME_ROLE ( 'creation_date' ) ;
#26 = DIRECTION ( 'NONE',  ( 0.000000000000000000, 0.000000000000000000, 1.000000000000000000 ) ) ;
#27 = CARTESIAN_POINT ( 'NONE',  ( -9.000000000000000000, 0.000000000000000000, 0.000000000000000000 ) ) ;
#28 = SHAPE_DEFINITION_REPRESENTATION ( #43, #77 ) ;
#29 = CC_DESIGN_PERSON_AND_ORGANIZATION_ASSIGNMENT ( #216, #163, ( #209 ) ) ;
#30 =( GEOMETRIC_REPRESENTATION_CONTEXT ( 3 ) GLOBAL_UNCERTAINTY_ASSIGNED_CONTEXT ( ( #108 ) ) GLOBAL_UNIT_ASSIGNED_CONTEXT ( ( #22, #234, #101 ) ) REPRESENTATION_CONTEXT ( 'NONE', 'WORKASPACE' ) );
#31 = ORIENTED_EDGE ( 'NONE', *, *, #39, .F. ) ;
#32 = PERSON_AND_ORGANIZATION_ROLE ( 'creator' ) ;
#33 = CARTESIAN_POINT ( 'NONE',  ( 0.000000000000000000, 0.000000000000000000, 7.000000000000000000 ) ) ;
#34 = PERSON_AND_ORGANIZATION ( #228, #21 ) ;
#35 = LINE ( 'NONE', #249, #172 ) ;
#36 = AXIS2_PLACEMENT_3D ( 'NONE', #150, #126, #151 ) ;
#37 = CIRCLE ( 'NONE', #8, 9.000000000000000000 ) ;
#38 = EDGE_CURVE ( 'NONE', #232, #59, #58, .T. ) ;
#39 = EDGE_CURVE ( 'NONE', #94, #135, #51, .T. ) ;
#40 = ORIENTED_EDGE ( 'NONE', *, *, #124, .F. ) ;
#41 = CC_DESIGN_SECURITY_CLASSIFICATION ( #211, ( #209 ) ) ;
#42 = DIRECTION ( 'NONE',  ( -0.000000000000000000, -0.000000000000000000, -1.000000000000000000 ) ) ;
#43 = PRODUCT_DEFINITION_SHAPE ( 'NONE', 'NONE',  #170 ) ;
#44 = SECURITY_CLASSIFICATION_LEVEL ( 'unclassified' ) ;
#45 = DIRECTION ( 'NONE',  ( 0.000000000000000000, 0.000000000000000000, 1.000000000000000000 ) ) ;
#46 = CARTESIAN_POINT ( 'NONE',  ( 5.750000000000000000, 7.041719095097280880E-16, 322.0000000000000000 ) ) ;
#47 = MECHANICAL_CONTEXT ( 'NONE', #5, 'mechanical' ) ;
#48 = DIRECTION ( 'NONE',  ( 1.000000000000000000, 0.000000000000000000, -0.000000000000000000 ) ) ;
#49 = DIRECTION ( 'NONE',  ( 0.000000000000000000, 0.000000000000000000, 1.000000000000000000 ) ) ;
#50 = COORDINATED_UNIVERSAL_TIME_OFFSET ( 1, 0, .AHEAD. ) ;
#51 = CIRCLE ( 'NONE', #36, 9.000000000000000000 ) ;
#52 = LINE ( 'NONE', #132, #114 ) ;
#53 = MANIFOLD_SOLID_BREP ( 'Pøidat vysunutím3', #104 ) ;
#54 = CIRCLE ( 'NONE', #193, 5.750000000000000000 ) ;
#55 = APPROVAL_PERSON_ORGANIZATION ( #68, #80, #85 ) ;
#56 = EDGE_CURVE ( 'NONE', #116, #190, #229, .T. ) ;
#57 = EDGE_CURVE ( 'NONE', #135, #59, #35, .T. ) ;
#58 = CIRCLE ( 'NONE', #60, 9.000000000000000000 ) ;
#59 = VERTEX_POINT ( 'NONE', #27 ) ;
#60 = AXIS2_PLACEMENT_3D ( 'NONE', #208, #49, #167 ) ;
#61 = AXIS2_PLACEMENT_3D ( 'NONE', #83, #42, #23 ) ;
#62 = EDGE_CURVE ( 'NONE', #94, #232, #52, .T. ) ;
#63 = CYLINDRICAL_SURFACE ( 'NONE', #61, 5.750000000000000000 ) ;
#64 = CARTESIAN_POINT ( 'NONE',  ( -5.750000000000000000, 0.000000000000000000, 7.000000000000000000 ) ) ;
#65 = APPROVAL_DATE_TIME ( #235, #247 ) ;
#66 = EDGE_LOOP ( 'NONE', ( #113, #76, #210, #162 ) ) ;
#67 = PRODUCT ( '8331', '8331', '', ( #47 ) ) ;
#68 = PERSON_AND_ORGANIZATION ( #228, #21 ) ;
#69 = CYLINDRICAL_SURFACE ( 'NONE', #81, 9.000000000000000000 ) ;
#70 = EDGE_LOOP ( 'NONE', ( #146, #187, #255, #251 ) ) ;
#71 = CARTESIAN_POINT ( 'NONE',  ( 0.000000000000000000, 0.000000000000000000, 7.000000000000000000 ) ) ;
#72 = CALENDAR_DATE ( 2022, 7, 7 ) ;
#73 = DIRECTION ( 'NONE',  ( -0.000000000000000000, -0.000000000000000000, -1.000000000000000000 ) ) ;
#74 = ORIENTED_EDGE ( 'NONE', *, *, #57, .F. ) ;
#75 = APPROVAL_PERSON_ORGANIZATION ( #179, #247, #198 ) ;
#76 = ORIENTED_EDGE ( 'NONE', *, *, #144, .F. ) ;
#77 = ADVANCED_BREP_SHAPE_REPRESENTATION ( '8331', ( #53, #204 ), #30 ) ;
#78 = ORIENTED_EDGE ( 'NONE', *, *, #106, .F. ) ;
#79 = EDGE_CURVE ( 'NONE', #190, #200, #92, .T. ) ;
#80 = APPROVAL ( #100, 'NEURÈENÝ' ) ;
#81 = AXIS2_PLACEMENT_3D ( 'NONE', #120, #159, #4 ) ;
#82 = CARTESIAN_POINT ( 'NONE',  ( 0.000000000000000000, 0.000000000000000000, 322.0000000000000000 ) ) ;
#83 = CARTESIAN_POINT ( 'NONE',  ( 0.000000000000000000, 0.000000000000000000, 322.0000000000000000 ) ) ;
#84 = CARTESIAN_POINT ( 'NONE',  ( 0.000000000000000000, 0.000000000000000000, 7.000000000000000000 ) ) ;
#85 = APPROVAL_ROLE ( '' ) ;
#86 = CARTESIAN_POINT ( 'NONE',  ( 5.750000000000000000, 7.041719095097280880E-16, 322.0000000000000000 ) ) ;
#87 = DIRECTION ( 'NONE',  ( 1.000000000000000000, 0.000000000000000000, 0.000000000000000000 ) ) ;
#88 = DATE_AND_TIME ( #6, #250 ) ;
#89 = ORIENTED_EDGE ( 'NONE', *, *, #38, .F. ) ;
#90 = ADVANCED_FACE ( 'NONE', ( #225 ), #239, .T. ) ;
#91 = CARTESIAN_POINT ( 'NONE',  ( 0.000000000000000000, 0.000000000000000000, 322.0000000000000000 ) ) ;
#92 = CIRCLE ( 'NONE', #19, 5.750000000000000000 ) ;
#93 = APPROVAL_PERSON_ORGANIZATION ( #182, #147, #207 ) ;
#94 = VERTEX_POINT ( 'NONE', #102 ) ;
#95 = CIRCLE ( 'NONE', #196, 9.000000000000000000 ) ;
#96 = AXIS2_PLACEMENT_3D ( 'NONE', #99, #157, #48 ) ;
#97 = DIRECTION ( 'NONE',  ( 1.000000000000000000, 0.000000000000000000, -0.000000000000000000 ) ) ;
#98 = CALENDAR_DATE ( 2022, 7, 7 ) ;
#99 = CARTESIAN_POINT ( 'NONE',  ( 0.000000000000000000, 0.000000000000000000, 7.000000000000000000 ) ) ;
#100 = APPROVAL_STATUS ( 'not_yet_approved' ) ;
#101 =( NAMED_UNIT ( * ) SI_UNIT ( $, .STERADIAN. ) SOLID_ANGLE_UNIT ( ) );
#102 = CARTESIAN_POINT ( 'NONE',  ( 9.000000000000000000, 1.102182119232617714E-15, 7.000000000000000000 ) ) ;
#103 = DATE_AND_TIME ( #177, #20 ) ;
#104 = CLOSED_SHELL ( 'NONE', ( #194, #188, #90, #213, #153, #174, #223 ) ) ;
#105 = LOCAL_TIME ( 19, 20, 57.00000000000000000, #240 ) ;
#106 = EDGE_CURVE ( 'NONE', #17, #200, #181, .T. ) ;
#107 = CARTESIAN_POINT ( 'NONE',  ( 0.000000000000000000, 0.000000000000000000, 7.000000000000000000 ) ) ;
#108 = UNCERTAINTY_MEASURE_WITH_UNIT (LENGTH_MEASURE( 1.000000000000000082E-05 ), #22, 'distance_accuracy_value', 'NONE');
#109 = PERSON_AND_ORGANIZATION ( #228, #21 ) ;
#110 = DIRECTION ( 'NONE',  ( 0.000000000000000000, 0.000000000000000000, 1.000000000000000000 ) ) ;
#111 = APPROVAL_STATUS ( 'not_yet_approved' ) ;
#112 = DIRECTION ( 'NONE',  ( 1.000000000000000000, 0.000000000000000000, 0.000000000000000000 ) ) ;
#113 = ORIENTED_EDGE ( 'NONE', *, *, #56, .F. ) ;
#114 = VECTOR ( 'NONE', #161, 1000.000000000000000 ) ;
#115 = ORIENTED_EDGE ( 'NONE', *, *, #79, .F. ) ;
#116 = VERTEX_POINT ( 'NONE', #86 ) ;
#117 = LOCAL_TIME ( 19, 20, 57.00000000000000000, #10 ) ;
#118 = CARTESIAN_POINT ( 'NONE',  ( 0.000000000000000000, 0.000000000000000000, 322.0000000000000000 ) ) ;
#119 = EDGE_LOOP ( 'NONE', ( #218, #115 ) ) ;
#120 = CARTESIAN_POINT ( 'NONE',  ( 0.000000000000000000, 0.000000000000000000, 7.000000000000000000 ) ) ;
#121 = DATE_AND_TIME ( #72, #105 ) ;
#122 = DIRECTION ( 'NONE',  ( -1.000000000000000000, 0.000000000000000000, 0.000000000000000000 ) ) ;
#123 = PERSON_AND_ORGANIZATION_ROLE ( 'design_owner' ) ;
#124 = EDGE_CURVE ( 'NONE', #59, #232, #95, .T. ) ;
#125 = CARTESIAN_POINT ( 'NONE',  ( -9.000000000000000000, 0.000000000000000000, 7.000000000000000000 ) ) ;
#126 = DIRECTION ( 'NONE',  ( 0.000000000000000000, 0.000000000000000000, 1.000000000000000000 ) ) ;
#127 = CALENDAR_DATE ( 2022, 7, 7 ) ;
#128 = CC_DESIGN_APPROVAL ( #147, ( #170 ) ) ;
#129 = CC_DESIGN_DATE_AND_TIME_ASSIGNMENT ( #121, #186, ( #211 ) ) ;
#130 = DIRECTION ( 'NONE',  ( -0.000000000000000000, -0.000000000000000000, -1.000000000000000000 ) ) ;
#131 = APPLICATION_PROTOCOL_DEFINITION ( 'international standard', 'config_control_design', 1994, #189 ) ;
#132 = CARTESIAN_POINT ( 'NONE',  ( 9.000000000000000000, 1.102182119232617714E-15, 7.000000000000000000 ) ) ;
#133 = AXIS2_PLACEMENT_3D ( 'NONE', #33, #110, #185 ) ;
#134 = EDGE_CURVE ( 'NONE', #200, #190, #236, .T. ) ;
#135 = VERTEX_POINT ( 'NONE', #125 ) ;
#136 = ORIENTED_EDGE ( 'NONE', *, *, #13, .T. ) ;
#137 = DIRECTION ( 'NONE',  ( -1.000000000000000000, 0.000000000000000000, 0.000000000000000000 ) ) ;
#138 = FACE_OUTER_BOUND ( 'NONE', #242, .T. ) ;
#139 = FACE_BOUND ( 'NONE', #119, .T. ) ;
#140 = AXIS2_PLACEMENT_3D ( 'NONE', #118, #220, #97 ) ;
#141 = APPLICATION_PROTOCOL_DEFINITION ( 'international standard', 'config_control_design', 1994, #5 ) ;
#142 = CARTESIAN_POINT ( 'NONE',  ( 0.000000000000000000, 0.000000000000000000, 322.0000000000000000 ) ) ;
#143 = CARTESIAN_POINT ( 'NONE',  ( -5.750000000000000000, 0.000000000000000000, 322.0000000000000000 ) ) ;
#144 = EDGE_CURVE ( 'NONE', #17, #116, #54, .T. ) ;
#145 = PLANE ( 'NONE',  #140 ) ;
#146 = ORIENTED_EDGE ( 'NONE', *, *, #62, .F. ) ;
#147 = APPROVAL ( #226, 'NEURÈENÝ' ) ;
#148 = EDGE_LOOP ( 'NONE', ( #192, #18, #173, #78 ) ) ;
#149 = APPROVAL_DATE_TIME ( #88, #80 ) ;
#150 = CARTESIAN_POINT ( 'NONE',  ( 0.000000000000000000, 0.000000000000000000, 7.000000000000000000 ) ) ;
#151 = DIRECTION ( 'NONE',  ( 1.000000000000000000, 0.000000000000000000, 0.000000000000000000 ) ) ;
#152 = LOCAL_TIME ( 19, 20, 57.00000000000000000, #184 ) ;
#153 = ADVANCED_FACE ( 'NONE', ( #2 ), #1, .F. ) ;
#154 = EDGE_LOOP ( 'NONE', ( #31, #231, #253, #74 ) ) ;
#155 = VECTOR ( 'NONE', #206, 1000.000000000000000 ) ;
#156 = CC_DESIGN_APPROVAL ( #247, ( #209 ) ) ;
#157 = DIRECTION ( 'NONE',  ( 0.000000000000000000, 0.000000000000000000, 1.000000000000000000 ) ) ;
#158 = DESIGN_CONTEXT ( 'detailed design', #189, 'design' ) ;
#159 = DIRECTION ( 'NONE',  ( -0.000000000000000000, -0.000000000000000000, -1.000000000000000000 ) ) ;
#160 = DIRECTION ( 'NONE',  ( 1.000000000000000000, 0.000000000000000000, 0.000000000000000000 ) ) ;
#161 = DIRECTION ( 'NONE',  ( -0.000000000000000000, -0.000000000000000000, -1.000000000000000000 ) ) ;
#162 = ORIENTED_EDGE ( 'NONE', *, *, #134, .T. ) ;
#163 = PERSON_AND_ORGANIZATION_ROLE ( 'design_supplier' ) ;
#164 = DIRECTION ( 'NONE',  ( 0.000000000000000000, 0.000000000000000000, 1.000000000000000000 ) ) ;
#165 = PERSON_AND_ORGANIZATION ( #228, #21 ) ;
#166 = EDGE_LOOP ( 'NONE', ( #40, #89 ) ) ;
#167 = DIRECTION ( 'NONE',  ( 1.000000000000000000, 0.000000000000000000, 0.000000000000000000 ) ) ;
#168 = AXIS2_PLACEMENT_3D ( 'NONE', #180, #26, #199 ) ;
#169 = EDGE_LOOP ( 'NONE', ( #252, #15 ) ) ;
#170 = PRODUCT_DEFINITION ( 'NEZNÁMÝ', '', #209, #158 ) ;
#171 = CC_DESIGN_PERSON_AND_ORGANIZATION_ASSIGNMENT ( #222, #123, ( #67 ) ) ;
#172 = VECTOR ( 'NONE', #73, 1000.000000000000000 ) ;
#173 = ORIENTED_EDGE ( 'NONE', *, *, #79, .T. ) ;
#174 = ADVANCED_FACE ( 'NONE', ( #195 ), #197, .T. ) ;
#175 = DIRECTION ( 'NONE',  ( 1.000000000000000000, 0.000000000000000000, 0.000000000000000000 ) ) ;
#176 = CC_DESIGN_PERSON_AND_ORGANIZATION_ASSIGNMENT ( #34, #201, ( #170 ) ) ;
#177 = CALENDAR_DATE ( 2022, 7, 7 ) ;
#178 = CARTESIAN_POINT ( 'NONE',  ( 9.000000000000000000, 1.102182119232617714E-15, 0.000000000000000000 ) ) ;
#179 = PERSON_AND_ORGANIZATION ( #228, #21 ) ;
#180 = CARTESIAN_POINT ( 'NONE',  ( 0.000000000000000000, 0.000000000000000000, 0.000000000000000000 ) ) ;
#181 = LINE ( 'NONE', #9, #155 ) ;
#182 = PERSON_AND_ORGANIZATION ( #228, #21 ) ;
#183 = CARTESIAN_POINT ( 'NONE',  ( 0.000000000000000000, 0.000000000000000000, 0.000000000000000000 ) ) ;
#184 = COORDINATED_UNIVERSAL_TIME_OFFSET ( 1, 0, .AHEAD. ) ;
#185 = DIRECTION ( 'NONE',  ( 1.000000000000000000, 0.000000000000000000, 0.000000000000000000 ) ) ;
#186 = DATE_TIME_ROLE ( 'classification_date' ) ;
#187 = ORIENTED_EDGE ( 'NONE', *, *, #243, .F. ) ;
#188 = ADVANCED_FACE ( 'NONE', ( #7 ), #69, .T. ) ;
#189 = APPLICATION_CONTEXT ( 'configuration controlled 3d designs of mechanical parts and assemblies' ) ;
#190 = VERTEX_POINT ( 'NONE', #217 ) ;
#191 = AXIS2_PLACEMENT_3D ( 'NONE', #107, #130, #122 ) ;
#192 = ORIENTED_EDGE ( 'NONE', *, *, #13, .F. ) ;
#193 = AXIS2_PLACEMENT_3D ( 'NONE', #142, #215, #175 ) ;
#194 = ADVANCED_FACE ( 'NONE', ( #241 ), #63, .T. ) ;
#195 = FACE_OUTER_BOUND ( 'NONE', #66, .T. ) ;
#196 = AXIS2_PLACEMENT_3D ( 'NONE', #183, #164, #245 ) ;
#197 = CYLINDRICAL_SURFACE ( 'NONE', #230, 5.750000000000000000 ) ;
#198 = APPROVAL_ROLE ( '' ) ;
#199 = DIRECTION ( 'NONE',  ( 1.000000000000000000, 0.000000000000000000, -0.000000000000000000 ) ) ;
#200 = VERTEX_POINT ( 'NONE', #64 ) ;
#201 = PERSON_AND_ORGANIZATION_ROLE ( 'creator' ) ;
#202 = VECTOR ( 'NONE', #248, 1000.000000000000000 ) ;
#203 = DIRECTION ( 'NONE',  ( 0.000000000000000000, 0.000000000000000000, 1.000000000000000000 ) ) ;
#204 = AXIS2_PLACEMENT_3D ( 'NONE', #205, #16, #219 ) ;
#205 = CARTESIAN_POINT ( 'NONE',  ( 0.000000000000000000, 0.000000000000000000, 0.000000000000000000 ) ) ;
#206 = DIRECTION ( 'NONE',  ( -0.000000000000000000, -0.000000000000000000, -1.000000000000000000 ) ) ;
#207 = APPROVAL_ROLE ( '' ) ;
#208 = CARTESIAN_POINT ( 'NONE',  ( 0.000000000000000000, 0.000000000000000000, 0.000000000000000000 ) ) ;
#209 = PRODUCT_DEFINITION_FORMATION_WITH_SPECIFIED_SOURCE ( 'LIBOVOLNÝ', '', #67, .NOT_KNOWN. ) ;
#210 = ORIENTED_EDGE ( 'NONE', *, *, #106, .T. ) ;
#211 = SECURITY_CLASSIFICATION ( '', '', #44 ) ;
#212 = CC_DESIGN_DATE_AND_TIME_ASSIGNMENT ( #3, #25, ( #170 ) ) ;
#213 = ADVANCED_FACE ( 'NONE', ( #139, #214 ), #24, .T. ) ;
#214 = FACE_OUTER_BOUND ( 'NONE', #169, .T. ) ;
#215 = DIRECTION ( 'NONE',  ( 0.000000000000000000, 0.000000000000000000, 1.000000000000000000 ) ) ;
#216 = PERSON_AND_ORGANIZATION ( #228, #21 ) ;
#217 = CARTESIAN_POINT ( 'NONE',  ( 5.750000000000000000, 7.041719095097280880E-16, 7.000000000000000000 ) ) ;
#218 = ORIENTED_EDGE ( 'NONE', *, *, #134, .F. ) ;
#219 = DIRECTION ( 'NONE',  ( 1.000000000000000000, 0.000000000000000000, 0.000000000000000000 ) ) ;
#220 = DIRECTION ( 'NONE',  ( 0.000000000000000000, 0.000000000000000000, 1.000000000000000000 ) ) ;
#221 = DIRECTION ( 'NONE',  ( 0.000000000000000000, 0.000000000000000000, 1.000000000000000000 ) ) ;
#222 = PERSON_AND_ORGANIZATION ( #228, #21 ) ;
#223 = ADVANCED_FACE ( 'NONE', ( #138 ), #145, .T. ) ;
#224 = AXIS2_PLACEMENT_3D ( 'NONE', #91, #221, #87 ) ;
#225 = FACE_OUTER_BOUND ( 'NONE', #70, .T. ) ;
#226 = APPROVAL_STATUS ( 'not_yet_approved' ) ;
#227 = CC_DESIGN_PERSON_AND_ORGANIZATION_ASSIGNMENT ( #109, #14, ( #211 ) ) ;
#228 = PERSON ( 'NEURÈENÝ', 'NEURÈENÝ', 'NEURÈENÝ', ('NEURÈENÝ'), ('NEURÈENÝ'), ('NEURÈENÝ') ) ;
#229 = LINE ( 'NONE', #46, #202 ) ;
#230 = AXIS2_PLACEMENT_3D ( 'NONE', #82, #237, #137 ) ;
#231 = ORIENTED_EDGE ( 'NONE', *, *, #62, .T. ) ;
#232 = VERTEX_POINT ( 'NONE', #178 ) ;
#233 = PRODUCT_RELATED_PRODUCT_CATEGORY ( 'detail', '', ( #67 ) ) ;
#234 =( NAMED_UNIT ( * ) PLANE_ANGLE_UNIT ( ) SI_UNIT ( $, .RADIAN. ) );
#235 = DATE_AND_TIME ( #127, #152 ) ;
#236 = CIRCLE ( 'NONE', #133, 5.750000000000000000 ) ;
#237 = DIRECTION ( 'NONE',  ( -0.000000000000000000, -0.000000000000000000, -1.000000000000000000 ) ) ;
#238 = CC_DESIGN_APPROVAL ( #80, ( #211 ) ) ;
#239 = CYLINDRICAL_SURFACE ( 'NONE', #191, 9.000000000000000000 ) ;
#240 = COORDINATED_UNIVERSAL_TIME_OFFSET ( 1, 0, .AHEAD. ) ;
#241 = FACE_OUTER_BOUND ( 'NONE', #148, .T. ) ;
#242 = EDGE_LOOP ( 'NONE', ( #12, #136 ) ) ;
#243 = EDGE_CURVE ( 'NONE', #135, #94, #37, .T. ) ;
#244 = APPROVAL_DATE_TIME ( #103, #147 ) ;
#245 = DIRECTION ( 'NONE',  ( 1.000000000000000000, 0.000000000000000000, 0.000000000000000000 ) ) ;
#246 = COORDINATED_UNIVERSAL_TIME_OFFSET ( 1, 0, .AHEAD. ) ;
#247 = APPROVAL ( #111, 'NEURÈENÝ' ) ;
#248 = DIRECTION ( 'NONE',  ( -0.000000000000000000, -0.000000000000000000, -1.000000000000000000 ) ) ;
#249 = CARTESIAN_POINT ( 'NONE',  ( -9.000000000000000000, 0.000000000000000000, 7.000000000000000000 ) ) ;
#250 = LOCAL_TIME ( 19, 20, 57.00000000000000000, #50 ) ;
#251 = ORIENTED_EDGE ( 'NONE', *, *, #124, .T. ) ;
#252 = ORIENTED_EDGE ( 'NONE', *, *, #243, .T. ) ;
#253 = ORIENTED_EDGE ( 'NONE', *, *, #38, .T. ) ;
#254 = CIRCLE ( 'NONE', #224, 5.750000000000000000 ) ;
#255 = ORIENTED_EDGE ( 'NONE', *, *, #57, .T. ) ;
ENDSEC;
END-ISO-10303-21;
