ISO-10303-21;
HEADER;
FILE_DESCRIPTION (( 'STEP AP203' ),
    '1' );
FILE_NAME ('21ac.STEP',
    '2022-07-07T18:01:49',
    ( '' ),
    ( '' ),
    'SwSTEP 2.0',
    'SolidWorks 2019',
    '' );
FILE_SCHEMA (( 'CONFIG_CONTROL_DESIGN' ));
ENDSEC;

DATA;
#1 = AXIS2_PLACEMENT_3D ( 'NONE', #206, #44, #142 ) ;
#2 = EDGE_LOOP ( 'NONE', ( #161, #125, #39, #48 ) ) ;
#3 = ORIENTED_EDGE ( 'NONE', *, *, #212, .F. ) ;
#4 = VERTEX_POINT ( 'NONE', #40 ) ;
#5 = CIRCLE ( 'NONE', #139, 2.000000000000000000 ) ;
#6 = CC_DESIGN_PERSON_AND_ORGANIZATION_ASSIGNMENT ( #146, #230, ( #133 ) ) ;
#7 = VERTEX_POINT ( 'NONE', #9 ) ;
#8 = CYLINDRICAL_SURFACE ( 'NONE', #179, 2.000000000000000000 ) ;
#9 = CARTESIAN_POINT ( 'NONE',  ( -2.000000000000000000, 0.000000000000000000, 2.000000000000000000 ) ) ;
#10 = DIRECTION ( 'NONE',  ( 1.000000000000000000, 0.000000000000000000, 0.000000000000000000 ) ) ;
#11 = DIRECTION ( 'NONE',  ( -1.000000000000000000, 0.000000000000000000, 0.000000000000000000 ) ) ;
#12 = AXIS2_PLACEMENT_3D ( 'NONE', #205, #67, #99 ) ;
#13 =( LENGTH_UNIT ( ) NAMED_UNIT ( * ) SI_UNIT ( .MILLI., .METRE. ) );
#14 = DIRECTION ( 'NONE',  ( 1.000000000000000000, 0.000000000000000000, 0.000000000000000000 ) ) ;
#15 = PERSON_AND_ORGANIZATION ( #167, #55 ) ;
#16 = APPROVAL_PERSON_ORGANIZATION ( #37, #251, #191 ) ;
#17 = APPLICATION_CONTEXT ( 'configuration controlled 3d designs of mechanical parts and assemblies' ) ;
#18 = CC_DESIGN_APPROVAL ( #210, ( #133 ) ) ;
#19 = ORIENTED_EDGE ( 'NONE', *, *, #233, .F. ) ;
#20 = CIRCLE ( 'NONE', #235, 1.000000000000000000 ) ;
#21 = ADVANCED_FACE ( 'NONE', ( #61 ), #84, .F. ) ;
#22 = DIRECTION ( 'NONE',  ( -1.000000000000000000, 0.000000000000000000, 0.000000000000000000 ) ) ;
#23 = PRODUCT_RELATED_PRODUCT_CATEGORY ( 'detail', '', ( #170 ) ) ;
#24 = VERTEX_POINT ( 'NONE', #100 ) ;
#25 = FACE_BOUND ( 'NONE', #140, .T. ) ;
#26 = PERSON_AND_ORGANIZATION_ROLE ( 'creator' ) ;
#27 = VERTEX_POINT ( 'NONE', #164 ) ;
#28 = CARTESIAN_POINT ( 'NONE',  ( 0.000000000000000000, 0.000000000000000000, 202.0000000000000000 ) ) ;
#29 = EDGE_LOOP ( 'NONE', ( #3, #226, #195, #144 ) ) ;
#30 = DIRECTION ( 'NONE',  ( -0.000000000000000000, -0.000000000000000000, -1.000000000000000000 ) ) ;
#31 = CARTESIAN_POINT ( 'NONE',  ( 0.000000000000000000, 0.000000000000000000, 2.000000000000000000 ) ) ;
#32 = PERSON_AND_ORGANIZATION ( #167, #55 ) ;
#33 = EDGE_CURVE ( 'NONE', #7, #46, #121, .T. ) ;
#34 = VECTOR ( 'NONE', #126, 1000.000000000000000 ) ;
#35 = EDGE_CURVE ( 'NONE', #218, #222, #247, .T. ) ;
#36 = PERSON_AND_ORGANIZATION ( #167, #55 ) ;
#37 = PERSON_AND_ORGANIZATION ( #167, #55 ) ;
#38 = AXIS2_PLACEMENT_3D ( 'NONE', #150, #223, #108 ) ;
#39 = ORIENTED_EDGE ( 'NONE', *, *, #216, .T. ) ;
#40 = CARTESIAN_POINT ( 'NONE',  ( -1.000000000000000000, 0.000000000000000000, 2.000000000000000000 ) ) ;
#41 = ADVANCED_FACE ( 'NONE', ( #176 ), #79, .T. ) ;
#42 = CC_DESIGN_SECURITY_CLASSIFICATION ( #90, ( #133 ) ) ;
#43 = ORIENTED_EDGE ( 'NONE', *, *, #94, .T. ) ;
#44 = DIRECTION ( 'NONE',  ( -0.000000000000000000, -0.000000000000000000, -1.000000000000000000 ) ) ;
#45 = PERSON_AND_ORGANIZATION ( #167, #55 ) ;
#46 = VERTEX_POINT ( 'NONE', #123 ) ;
#47 = CARTESIAN_POINT ( 'NONE',  ( -1.000000000000000000, 0.000000000000000000, 202.0000000000000000 ) ) ;
#48 = ORIENTED_EDGE ( 'NONE', *, *, #177, .T. ) ;
#49 = CYLINDRICAL_SURFACE ( 'NONE', #1, 1.000000000000000000 ) ;
#50 = AXIS2_PLACEMENT_3D ( 'NONE', #231, #253, #69 ) ;
#51 = PLANE ( 'NONE',  #81 ) ;
#52 = ADVANCED_FACE ( 'NONE', ( #200 ), #239, .T. ) ;
#53 = PERSON_AND_ORGANIZATION ( #167, #55 ) ;
#54 = CC_DESIGN_PERSON_AND_ORGANIZATION_ASSIGNMENT ( #32, #26, ( #95 ) ) ;
#55 = ORGANIZATION ( 'NEURÈENÝ', 'NEURÈENÝ', '' ) ;
#56 = LOCAL_TIME ( 20, 1, 49.00000000000000000, #131 ) ;
#57 = EDGE_CURVE ( 'NONE', #24, #7, #245, .T. ) ;
#58 = SHAPE_DEFINITION_REPRESENTATION ( #252, #134 ) ;
#59 = DESIGN_CONTEXT ( 'detailed design', #17, 'design' ) ;
#60 = CC_DESIGN_DATE_AND_TIME_ASSIGNMENT ( #151, #201, ( #95 ) ) ;
#61 = FACE_OUTER_BOUND ( 'NONE', #199, .T. ) ;
#62 = VERTEX_POINT ( 'NONE', #89 ) ;
#63 = CARTESIAN_POINT ( 'NONE',  ( 0.000000000000000000, 0.000000000000000000, 2.000000000000000000 ) ) ;
#64 = ORIENTED_EDGE ( 'NONE', *, *, #212, .T. ) ;
#65 = CARTESIAN_POINT ( 'NONE',  ( 0.000000000000000000, 0.000000000000000000, 2.000000000000000000 ) ) ;
#66 = MECHANICAL_CONTEXT ( 'NONE', #77, 'mechanical' ) ;
#67 = DIRECTION ( 'NONE',  ( 0.000000000000000000, 0.000000000000000000, 1.000000000000000000 ) ) ;
#68 = LINE ( 'NONE', #162, #215 ) ;
#69 = DIRECTION ( 'NONE',  ( 1.000000000000000000, 0.000000000000000000, 0.000000000000000000 ) ) ;
#70 = CALENDAR_DATE ( 2022, 7, 7 ) ;
#71 = CARTESIAN_POINT ( 'NONE',  ( 0.000000000000000000, 0.000000000000000000, 202.0000000000000000 ) ) ;
#72 = PERSON_AND_ORGANIZATION_ROLE ( 'design_owner' ) ;
#73 = CC_DESIGN_PERSON_AND_ORGANIZATION_ASSIGNMENT ( #221, #72, ( #170 ) ) ;
#74 = CIRCLE ( 'NONE', #101, 2.000000000000000000 ) ;
#75 = ADVANCED_FACE ( 'NONE', ( #87 ), #8, .T. ) ;
#76 = DATE_TIME_ROLE ( 'classification_date' ) ;
#77 = APPLICATION_CONTEXT ( 'configuration controlled 3d designs of mechanical parts and assemblies' ) ;
#78 = CC_DESIGN_PERSON_AND_ORGANIZATION_ASSIGNMENT ( #15, #91, ( #133 ) ) ;
#79 = CYLINDRICAL_SURFACE ( 'NONE', #115, 1.000000000000000000 ) ;
#80 = EDGE_LOOP ( 'NONE', ( #122, #202 ) ) ;
#81 = AXIS2_PLACEMENT_3D ( 'NONE', #65, #132, #103 ) ;
#82 = DIRECTION ( 'NONE',  ( -0.000000000000000000, -0.000000000000000000, -1.000000000000000000 ) ) ;
#83 = APPROVAL_STATUS ( 'not_yet_approved' ) ;
#84 = PLANE ( 'NONE',  #234 ) ;
#85 = DIRECTION ( 'NONE',  ( 0.000000000000000000, 0.000000000000000000, 1.000000000000000000 ) ) ;
#86 = CARTESIAN_POINT ( 'NONE',  ( 0.000000000000000000, 0.000000000000000000, 2.000000000000000000 ) ) ;
#87 = FACE_OUTER_BOUND ( 'NONE', #98, .T. ) ;
#88 = DIRECTION ( 'NONE',  ( 1.000000000000000000, 0.000000000000000000, 0.000000000000000000 ) ) ;
#89 = CARTESIAN_POINT ( 'NONE',  ( 2.000000000000000000, 2.449293598294706414E-16, 0.000000000000000000 ) ) ;
#90 = SECURITY_CLASSIFICATION ( '', '', #232 ) ;
#91 = PERSON_AND_ORGANIZATION_ROLE ( 'design_supplier' ) ;
#92 = APPROVAL_STATUS ( 'not_yet_approved' ) ;
#93 = VECTOR ( 'NONE', #198, 1000.000000000000000 ) ;
#94 = EDGE_CURVE ( 'NONE', #24, #62, #68, .T. ) ;
#95 = PRODUCT_DEFINITION ( 'NEZNÁMÝ', '', #133, #59 ) ;
#96 = COORDINATED_UNIVERSAL_TIME_OFFSET ( 1, 0, .AHEAD. ) ;
#97 = AXIS2_PLACEMENT_3D ( 'NONE', #63, #145, #181 ) ;
#98 = EDGE_LOOP ( 'NONE', ( #147, #102, #180, #110 ) ) ;
#99 = DIRECTION ( 'NONE',  ( 1.000000000000000000, 0.000000000000000000, 0.000000000000000000 ) ) ;
#100 = CARTESIAN_POINT ( 'NONE',  ( 2.000000000000000000, 2.449293598294706414E-16, 2.000000000000000000 ) ) ;
#101 = AXIS2_PLACEMENT_3D ( 'NONE', #184, #111, #14 ) ;
#102 = ORIENTED_EDGE ( 'NONE', *, *, #254, .F. ) ;
#103 = DIRECTION ( 'NONE',  ( 1.000000000000000000, 0.000000000000000000, -0.000000000000000000 ) ) ;
#104 =( NAMED_UNIT ( * ) PLANE_ANGLE_UNIT ( ) SI_UNIT ( $, .RADIAN. ) );
#105 = EDGE_CURVE ( 'NONE', #46, #62, #5, .T. ) ;
#106 = ORIENTED_EDGE ( 'NONE', *, *, #105, .F. ) ;
#107 = APPROVAL_PERSON_ORGANIZATION ( #53, #210, #114 ) ;
#108 = DIRECTION ( 'NONE',  ( 1.000000000000000000, 0.000000000000000000, 0.000000000000000000 ) ) ;
#109 = APPROVAL_DATE_TIME ( #127, #210 ) ;
#110 = ORIENTED_EDGE ( 'NONE', *, *, #105, .T. ) ;
#111 = DIRECTION ( 'NONE',  ( 0.000000000000000000, 0.000000000000000000, 1.000000000000000000 ) ) ;
#112 = APPROVAL_ROLE ( '' ) ;
#113 = PLANE ( 'NONE',  #182 ) ;
#114 = APPROVAL_ROLE ( '' ) ;
#115 = AXIS2_PLACEMENT_3D ( 'NONE', #158, #237, #22 ) ;
#116 = CC_DESIGN_APPROVAL ( #251, ( #90 ) ) ;
#117 = CALENDAR_DATE ( 2022, 7, 7 ) ;
#118 = COORDINATED_UNIVERSAL_TIME_OFFSET ( 1, 0, .AHEAD. ) ;
#119 = AXIS2_PLACEMENT_3D ( 'NONE', #31, #130, #186 ) ;
#120 = AXIS2_PLACEMENT_3D ( 'NONE', #86, #250, #88 ) ;
#121 = LINE ( 'NONE', #243, #93 ) ;
#122 = ORIENTED_EDGE ( 'NONE', *, *, #254, .T. ) ;
#123 = CARTESIAN_POINT ( 'NONE',  ( -2.000000000000000000, 0.000000000000000000, 0.000000000000000000 ) ) ;
#124 = APPLICATION_PROTOCOL_DEFINITION ( 'international standard', 'config_control_design', 1994, #17 ) ;
#125 = ORIENTED_EDGE ( 'NONE', *, *, #35, .F. ) ;
#126 = DIRECTION ( 'NONE',  ( -0.000000000000000000, -0.000000000000000000, -1.000000000000000000 ) ) ;
#127 = DATE_AND_TIME ( #70, #197 ) ;
#128 = EDGE_LOOP ( 'NONE', ( #217, #43, #196, #141 ) ) ;
#129 = CARTESIAN_POINT ( 'NONE',  ( 0.000000000000000000, 0.000000000000000000, 0.000000000000000000 ) ) ;
#130 = DIRECTION ( 'NONE',  ( 0.000000000000000000, 0.000000000000000000, 1.000000000000000000 ) ) ;
#131 = COORDINATED_UNIVERSAL_TIME_OFFSET ( 1, 0, .AHEAD. ) ;
#132 = DIRECTION ( 'NONE',  ( 0.000000000000000000, 0.000000000000000000, 1.000000000000000000 ) ) ;
#133 = PRODUCT_DEFINITION_FORMATION_WITH_SPECIFIED_SOURCE ( 'LIBOVOLNÝ', '', #170, .NOT_KNOWN. ) ;
#134 = ADVANCED_BREP_SHAPE_REPRESENTATION ( '21ac', ( #155, #135 ), #138 ) ;
#135 = AXIS2_PLACEMENT_3D ( 'NONE', #166, #143, #204 ) ;
#136 = CC_DESIGN_DATE_AND_TIME_ASSIGNMENT ( #213, #76, ( #90 ) ) ;
#137 = CIRCLE ( 'NONE', #50, 1.000000000000000000 ) ;
#138 =( GEOMETRIC_REPRESENTATION_CONTEXT ( 3 ) GLOBAL_UNCERTAINTY_ASSIGNED_CONTEXT ( ( #157 ) ) GLOBAL_UNIT_ASSIGNED_CONTEXT ( ( #13, #104, #173 ) ) REPRESENTATION_CONTEXT ( 'NONE', 'WORKASPACE' ) );
#139 = AXIS2_PLACEMENT_3D ( 'NONE', #249, #168, #10 ) ;
#140 = EDGE_LOOP ( 'NONE', ( #238, #19 ) ) ;
#141 = ORIENTED_EDGE ( 'NONE', *, *, #33, .F. ) ;
#142 = DIRECTION ( 'NONE',  ( -1.000000000000000000, 0.000000000000000000, 0.000000000000000000 ) ) ;
#143 = DIRECTION ( 'NONE',  ( 0.000000000000000000, 0.000000000000000000, 1.000000000000000000 ) ) ;
#144 = ORIENTED_EDGE ( 'NONE', *, *, #216, .F. ) ;
#145 = DIRECTION ( 'NONE',  ( -0.000000000000000000, -0.000000000000000000, -1.000000000000000000 ) ) ;
#146 = PERSON_AND_ORGANIZATION ( #167, #55 ) ;
#147 = ORIENTED_EDGE ( 'NONE', *, *, #94, .F. ) ;
#148 = CARTESIAN_POINT ( 'NONE',  ( -1.000000000000000000, 0.000000000000000000, 202.0000000000000000 ) ) ;
#149 = VECTOR ( 'NONE', #30, 1000.000000000000000 ) ;
#150 = CARTESIAN_POINT ( 'NONE',  ( 0.000000000000000000, 0.000000000000000000, 2.000000000000000000 ) ) ;
#151 = DATE_AND_TIME ( #225, #56 ) ;
#152 = DIRECTION ( 'NONE',  ( 0.000000000000000000, 0.000000000000000000, 1.000000000000000000 ) ) ;
#153 = CALENDAR_DATE ( 2022, 7, 7 ) ;
#154 = LOCAL_TIME ( 20, 1, 49.00000000000000000, #118 ) ;
#155 = MANIFOLD_SOLID_BREP ( 'Pøidat vysunutím3', #224 ) ;
#156 = APPROVAL_DATE_TIME ( #192, #251 ) ;
#157 = UNCERTAINTY_MEASURE_WITH_UNIT (LENGTH_MEASURE( 1.000000000000000082E-05 ), #13, 'distance_accuracy_value', 'NONE');
#158 = CARTESIAN_POINT ( 'NONE',  ( 0.000000000000000000, 0.000000000000000000, 202.0000000000000000 ) ) ;
#159 = CC_DESIGN_PERSON_AND_ORGANIZATION_ASSIGNMENT ( #36, #214, ( #90 ) ) ;
#160 = ORIENTED_EDGE ( 'NONE', *, *, #174, .F. ) ;
#161 = ORIENTED_EDGE ( 'NONE', *, *, #220, .F. ) ;
#162 = CARTESIAN_POINT ( 'NONE',  ( 2.000000000000000000, 2.449293598294706414E-16, 2.000000000000000000 ) ) ;
#163 = COORDINATED_UNIVERSAL_TIME_OFFSET ( 1, 0, .AHEAD. ) ;
#164 = CARTESIAN_POINT ( 'NONE',  ( 1.000000000000000000, 1.224646799147353207E-16, 2.000000000000000000 ) ) ;
#165 = DIRECTION ( 'NONE',  ( 1.000000000000000000, 0.000000000000000000, 0.000000000000000000 ) ) ;
#166 = CARTESIAN_POINT ( 'NONE',  ( 0.000000000000000000, 0.000000000000000000, 0.000000000000000000 ) ) ;
#167 = PERSON ( 'NEURÈENÝ', 'NEURÈENÝ', 'NEURÈENÝ', ('NEURÈENÝ'), ('NEURÈENÝ'), ('NEURÈENÝ') ) ;
#168 = DIRECTION ( 'NONE',  ( 0.000000000000000000, 0.000000000000000000, 1.000000000000000000 ) ) ;
#169 = COORDINATED_UNIVERSAL_TIME_OFFSET ( 1, 0, .AHEAD. ) ;
#170 = PRODUCT ( '21ac', '21ac', '', ( #66 ) ) ;
#171 = CIRCLE ( 'NONE', #119, 1.000000000000000000 ) ;
#172 = CARTESIAN_POINT ( 'NONE',  ( 0.000000000000000000, 0.000000000000000000, 2.000000000000000000 ) ) ;
#173 =( NAMED_UNIT ( * ) SI_UNIT ( $, .STERADIAN. ) SOLID_ANGLE_UNIT ( ) );
#174 = EDGE_CURVE ( 'NONE', #62, #46, #74, .T. ) ;
#175 = ADVANCED_FACE ( 'NONE', ( #242 ), #49, .T. ) ;
#176 = FACE_OUTER_BOUND ( 'NONE', #2, .T. ) ;
#177 = EDGE_CURVE ( 'NONE', #4, #27, #137, .T. ) ;
#178 = DIRECTION ( 'NONE',  ( 1.000000000000000000, 0.000000000000000000, -0.000000000000000000 ) ) ;
#179 = AXIS2_PLACEMENT_3D ( 'NONE', #172, #244, #11 ) ;
#180 = ORIENTED_EDGE ( 'NONE', *, *, #33, .T. ) ;
#181 = DIRECTION ( 'NONE',  ( -1.000000000000000000, 0.000000000000000000, 0.000000000000000000 ) ) ;
#182 = AXIS2_PLACEMENT_3D ( 'NONE', #71, #152, #189 ) ;
#183 = ORIENTED_EDGE ( 'NONE', *, *, #35, .T. ) ;
#184 = CARTESIAN_POINT ( 'NONE',  ( 0.000000000000000000, 0.000000000000000000, 0.000000000000000000 ) ) ;
#185 = DIRECTION ( 'NONE',  ( 0.000000000000000000, 0.000000000000000000, 1.000000000000000000 ) ) ;
#186 = DIRECTION ( 'NONE',  ( 1.000000000000000000, 0.000000000000000000, 0.000000000000000000 ) ) ;
#187 = LINE ( 'NONE', #47, #34 ) ;
#188 = ADVANCED_FACE ( 'NONE', ( #25, #229 ), #51, .T. ) ;
#189 = DIRECTION ( 'NONE',  ( 1.000000000000000000, 0.000000000000000000, -0.000000000000000000 ) ) ;
#190 = LOCAL_TIME ( 20, 1, 49.00000000000000000, #96 ) ;
#191 = APPROVAL_ROLE ( '' ) ;
#192 = DATE_AND_TIME ( #193, #154 ) ;
#193 = CALENDAR_DATE ( 2022, 7, 7 ) ;
#194 = LOCAL_TIME ( 20, 1, 49.00000000000000000, #163 ) ;
#195 = ORIENTED_EDGE ( 'NONE', *, *, #233, .T. ) ;
#196 = ORIENTED_EDGE ( 'NONE', *, *, #174, .T. ) ;
#197 = LOCAL_TIME ( 20, 1, 49.00000000000000000, #169 ) ;
#198 = DIRECTION ( 'NONE',  ( -0.000000000000000000, -0.000000000000000000, -1.000000000000000000 ) ) ;
#199 = EDGE_LOOP ( 'NONE', ( #106, #160 ) ) ;
#200 = FACE_OUTER_BOUND ( 'NONE', #128, .T. ) ;
#201 = DATE_TIME_ROLE ( 'creation_date' ) ;
#202 = ORIENTED_EDGE ( 'NONE', *, *, #57, .T. ) ;
#203 = CARTESIAN_POINT ( 'NONE',  ( 1.000000000000000000, 1.224646799147353207E-16, 202.0000000000000000 ) ) ;
#204 = DIRECTION ( 'NONE',  ( 1.000000000000000000, 0.000000000000000000, 0.000000000000000000 ) ) ;
#205 = CARTESIAN_POINT ( 'NONE',  ( 0.000000000000000000, 0.000000000000000000, 202.0000000000000000 ) ) ;
#206 = CARTESIAN_POINT ( 'NONE',  ( 0.000000000000000000, 0.000000000000000000, 202.0000000000000000 ) ) ;
#207 = APPROVAL_STATUS ( 'not_yet_approved' ) ;
#208 = CARTESIAN_POINT ( 'NONE',  ( 1.000000000000000000, 1.224646799147353207E-16, 202.0000000000000000 ) ) ;
#209 = DATE_AND_TIME ( #153, #194 ) ;
#210 = APPROVAL ( #207, 'NEURÈENÝ' ) ;
#211 = CIRCLE ( 'NONE', #120, 2.000000000000000000 ) ;
#212 = EDGE_CURVE ( 'NONE', #222, #218, #20, .T. ) ;
#213 = DATE_AND_TIME ( #117, #190 ) ;
#214 = PERSON_AND_ORGANIZATION_ROLE ( 'classification_officer' ) ;
#215 = VECTOR ( 'NONE', #82, 1000.000000000000000 ) ;
#216 = EDGE_CURVE ( 'NONE', #218, #4, #187, .T. ) ;
#217 = ORIENTED_EDGE ( 'NONE', *, *, #57, .F. ) ;
#218 = VERTEX_POINT ( 'NONE', #148 ) ;
#219 = FACE_OUTER_BOUND ( 'NONE', #241, .T. ) ;
#220 = EDGE_CURVE ( 'NONE', #222, #27, #227, .T. ) ;
#221 = PERSON_AND_ORGANIZATION ( #167, #55 ) ;
#222 = VERTEX_POINT ( 'NONE', #208 ) ;
#223 = DIRECTION ( 'NONE',  ( 0.000000000000000000, 0.000000000000000000, 1.000000000000000000 ) ) ;
#224 = CLOSED_SHELL ( 'NONE', ( #175, #52, #75, #188, #21, #41, #246 ) ) ;
#225 = CALENDAR_DATE ( 2022, 7, 7 ) ;
#226 = ORIENTED_EDGE ( 'NONE', *, *, #220, .T. ) ;
#227 = LINE ( 'NONE', #203, #149 ) ;
#228 = APPLICATION_PROTOCOL_DEFINITION ( 'international standard', 'config_control_design', 1994, #77 ) ;
#229 = FACE_OUTER_BOUND ( 'NONE', #80, .T. ) ;
#230 = PERSON_AND_ORGANIZATION_ROLE ( 'creator' ) ;
#231 = CARTESIAN_POINT ( 'NONE',  ( 0.000000000000000000, 0.000000000000000000, 2.000000000000000000 ) ) ;
#232 = SECURITY_CLASSIFICATION_LEVEL ( 'unclassified' ) ;
#233 = EDGE_CURVE ( 'NONE', #27, #4, #171, .T. ) ;
#234 = AXIS2_PLACEMENT_3D ( 'NONE', #129, #185, #178 ) ;
#235 = AXIS2_PLACEMENT_3D ( 'NONE', #28, #85, #165 ) ;
#236 = CC_DESIGN_APPROVAL ( #255, ( #95 ) ) ;
#237 = DIRECTION ( 'NONE',  ( -0.000000000000000000, -0.000000000000000000, -1.000000000000000000 ) ) ;
#238 = ORIENTED_EDGE ( 'NONE', *, *, #177, .F. ) ;
#239 = CYLINDRICAL_SURFACE ( 'NONE', #97, 2.000000000000000000 ) ;
#240 = APPROVAL_PERSON_ORGANIZATION ( #45, #255, #112 ) ;
#241 = EDGE_LOOP ( 'NONE', ( #183, #64 ) ) ;
#242 = FACE_OUTER_BOUND ( 'NONE', #29, .T. ) ;
#243 = CARTESIAN_POINT ( 'NONE',  ( -2.000000000000000000, 0.000000000000000000, 2.000000000000000000 ) ) ;
#244 = DIRECTION ( 'NONE',  ( -0.000000000000000000, -0.000000000000000000, -1.000000000000000000 ) ) ;
#245 = CIRCLE ( 'NONE', #38, 2.000000000000000000 ) ;
#246 = ADVANCED_FACE ( 'NONE', ( #219 ), #113, .T. ) ;
#247 = CIRCLE ( 'NONE', #12, 1.000000000000000000 ) ;
#248 = APPROVAL_DATE_TIME ( #209, #255 ) ;
#249 = CARTESIAN_POINT ( 'NONE',  ( 0.000000000000000000, 0.000000000000000000, 0.000000000000000000 ) ) ;
#250 = DIRECTION ( 'NONE',  ( 0.000000000000000000, 0.000000000000000000, 1.000000000000000000 ) ) ;
#251 = APPROVAL ( #92, 'NEURÈENÝ' ) ;
#252 = PRODUCT_DEFINITION_SHAPE ( 'NONE', 'NONE',  #95 ) ;
#253 = DIRECTION ( 'NONE',  ( 0.000000000000000000, 0.000000000000000000, 1.000000000000000000 ) ) ;
#254 = EDGE_CURVE ( 'NONE', #7, #24, #211, .T. ) ;
#255 = APPROVAL ( #83, 'NEURÈENÝ' ) ;
ENDSEC;
END-ISO-10303-21;
