ISO-10303-21;
HEADER;
FILE_DESCRIPTION (( 'STEP AP203' ),
    '1' );
FILE_NAME ('0c85.STEP',
    '2022-07-07T17:17:15',
    ( '' ),
    ( '' ),
    'SwSTEP 2.0',
    'SolidWorks 2019',
    '' );
FILE_SCHEMA (( 'CONFIG_CONTROL_DESIGN' ));
ENDSEC;

DATA;
#1 = CIRCLE ( 'NONE', #34, 6.500000000000000888 ) ;
#2 = DIRECTION ( 'NONE',  ( 1.000000000000000000, 0.000000000000000000, 0.000000000000000000 ) ) ;
#3 = EDGE_LOOP ( 'NONE', ( #143, #189 ) ) ;
#4 = APPROVAL_ROLE ( '' ) ;
#5 = SHAPE_DEFINITION_REPRESENTATION ( #193, #133 ) ;
#6 = DIRECTION ( 'NONE',  ( 0.000000000000000000, 0.000000000000000000, 1.000000000000000000 ) ) ;
#7 = MECHANICAL_CONTEXT ( 'NONE', #254, 'mechanical' ) ;
#8 = DIRECTION ( 'NONE',  ( 0.000000000000000000, 0.000000000000000000, 1.000000000000000000 ) ) ;
#9 = VERTEX_POINT ( 'NONE', #108 ) ;
#10 = AXIS2_PLACEMENT_3D ( 'NONE', #52, #132, #86 ) ;
#11 = VECTOR ( 'NONE', #152, 1000.000000000000000 ) ;
#12 = EDGE_CURVE ( 'NONE', #180, #200, #89, .T. ) ;
#13 = EDGE_CURVE ( 'NONE', #161, #9, #1, .T. ) ;
#14 = FACE_OUTER_BOUND ( 'NONE', #25, .T. ) ;
#15 = CIRCLE ( 'NONE', #162, 11.00000000000000000 ) ;
#16 = ORIENTED_EDGE ( 'NONE', *, *, #12, .T. ) ;
#17 = ADVANCED_FACE ( 'NONE', ( #105, #169 ), #103, .T. ) ;
#18 = CARTESIAN_POINT ( 'NONE',  ( -11.00000000000000000, 0.000000000000000000, 0.000000000000000000 ) ) ;
#19 = ORIENTED_EDGE ( 'NONE', *, *, #228, .F. ) ;
#20 = DIRECTION ( 'NONE',  ( 0.000000000000000000, 0.000000000000000000, 1.000000000000000000 ) ) ;
#21 = VERTEX_POINT ( 'NONE', #127 ) ;
#22 = DIRECTION ( 'NONE',  ( 0.000000000000000000, 0.000000000000000000, 1.000000000000000000 ) ) ;
#23 = CC_DESIGN_APPROVAL ( #196, ( #195 ) ) ;
#24 = APPROVAL_ROLE ( '' ) ;
#25 = EDGE_LOOP ( 'NONE', ( #140, #239, #157, #116 ) ) ;
#26 = SECURITY_CLASSIFICATION_LEVEL ( 'unclassified' ) ;
#27 = DIRECTION ( 'NONE',  ( -0.000000000000000000, -0.000000000000000000, -1.000000000000000000 ) ) ;
#28 = APPROVAL_STATUS ( 'not_yet_approved' ) ;
#29 = ORIENTED_EDGE ( 'NONE', *, *, #181, .F. ) ;
#30 = MANIFOLD_SOLID_BREP ( 'Pøidat vysunutím3', #237 ) ;
#31 = DIRECTION ( 'NONE',  ( 0.000000000000000000, 0.000000000000000000, 1.000000000000000000 ) ) ;
#32 = VERTEX_POINT ( 'NONE', #88 ) ;
#33 = AXIS2_PLACEMENT_3D ( 'NONE', #37, #155, #141 ) ;
#34 = AXIS2_PLACEMENT_3D ( 'NONE', #248, #223, #227 ) ;
#35 = AXIS2_PLACEMENT_3D ( 'NONE', #174, #75, #194 ) ;
#36 = CARTESIAN_POINT ( 'NONE',  ( 0.000000000000000000, 0.000000000000000000, 7.000000000000000000 ) ) ;
#37 = CARTESIAN_POINT ( 'NONE',  ( 0.000000000000000000, 0.000000000000000000, 7.000000000000000000 ) ) ;
#38 = DIRECTION ( 'NONE',  ( 0.000000000000000000, 0.000000000000000000, 1.000000000000000000 ) ) ;
#39 = DIRECTION ( 'NONE',  ( 1.000000000000000000, 0.000000000000000000, -0.000000000000000000 ) ) ;
#40 = APPLICATION_CONTEXT ( 'configuration controlled 3d designs of mechanical parts and assemblies' ) ;
#41 = APPLICATION_PROTOCOL_DEFINITION ( 'international standard', 'config_control_design', 1994, #254 ) ;
#42 = VERTEX_POINT ( 'NONE', #203 ) ;
#43 = CC_DESIGN_DATE_AND_TIME_ASSIGNMENT ( #159, #224, ( #90 ) ) ;
#44 = DATE_AND_TIME ( #148, #82 ) ;
#45 = APPLICATION_PROTOCOL_DEFINITION ( 'international standard', 'config_control_design', 1994, #40 ) ;
#46 = DIRECTION ( 'NONE',  ( -0.000000000000000000, -0.000000000000000000, -1.000000000000000000 ) ) ;
#47 = CC_DESIGN_PERSON_AND_ORGANIZATION_ASSIGNMENT ( #188, #207, ( #54 ) ) ;
#48 = PERSON_AND_ORGANIZATION_ROLE ( 'design_owner' ) ;
#49 = DIRECTION ( 'NONE',  ( 1.000000000000000000, 0.000000000000000000, -0.000000000000000000 ) ) ;
#50 = PERSON_AND_ORGANIZATION ( #71, #76 ) ;
#51 = FACE_OUTER_BOUND ( 'NONE', #69, .T. ) ;
#52 = CARTESIAN_POINT ( 'NONE',  ( 0.000000000000000000, 0.000000000000000000, 7.000000000000000000 ) ) ;
#53 = AXIS2_PLACEMENT_3D ( 'NONE', #190, #8, #49 ) ;
#54 = PRODUCT_DEFINITION_FORMATION_WITH_SPECIFIED_SOURCE ( 'LIBOVOLNÝ', '', #111, .NOT_KNOWN. ) ;
#55 = CYLINDRICAL_SURFACE ( 'NONE', #35, 6.500000000000000888 ) ;
#56 = ORIENTED_EDGE ( 'NONE', *, *, #107, .F. ) ;
#57 = CARTESIAN_POINT ( 'NONE',  ( 0.000000000000000000, 0.000000000000000000, 0.000000000000000000 ) ) ;
#58 = ORIENTED_EDGE ( 'NONE', *, *, #211, .F. ) ;
#59 = FACE_OUTER_BOUND ( 'NONE', #177, .T. ) ;
#60 = VECTOR ( 'NONE', #183, 1000.000000000000000 ) ;
#61 = EDGE_CURVE ( 'NONE', #180, #21, #178, .T. ) ;
#62 = APPROVAL_DATE_TIME ( #85, #139 ) ;
#63 = PERSON_AND_ORGANIZATION_ROLE ( 'creator' ) ;
#64 = CARTESIAN_POINT ( 'NONE',  ( 0.000000000000000000, 0.000000000000000000, 7.000000000000000000 ) ) ;
#65 = CIRCLE ( 'NONE', #134, 11.00000000000000000 ) ;
#66 = ORIENTED_EDGE ( 'NONE', *, *, #61, .F. ) ;
#67 = ADVANCED_FACE ( 'NONE', ( #191 ), #208, .T. ) ;
#68 = CALENDAR_DATE ( 2022, 7, 7 ) ;
#69 = EDGE_LOOP ( 'NONE', ( #19, #202 ) ) ;
#70 = ORIENTED_EDGE ( 'NONE', *, *, #209, .T. ) ;
#71 = PERSON ( 'NEURÈENÝ', 'NEURÈENÝ', 'NEURÈENÝ', ('NEURÈENÝ'), ('NEURÈENÝ'), ('NEURÈENÝ') ) ;
#72 = APPROVAL ( #163, 'NEURÈENÝ' ) ;
#73 = CC_DESIGN_PERSON_AND_ORGANIZATION_ASSIGNMENT ( #87, #121, ( #195 ) ) ;
#74 = VECTOR ( 'NONE', #93, 1000.000000000000000 ) ;
#75 = DIRECTION ( 'NONE',  ( -0.000000000000000000, -0.000000000000000000, -1.000000000000000000 ) ) ;
#76 = ORGANIZATION ( 'NEURÈENÝ', 'NEURÈENÝ', '' ) ;
#77 = CARTESIAN_POINT ( 'NONE',  ( -6.500000000000000888, 0.000000000000000000, 132.0000000000000000 ) ) ;
#78 = VECTOR ( 'NONE', #46, 1000.000000000000000 ) ;
#79 = CARTESIAN_POINT ( 'NONE',  ( 11.00000000000000000, 1.347111479062088405E-15, 0.000000000000000000 ) ) ;
#80 = ORIENTED_EDGE ( 'NONE', *, *, #187, .T. ) ;
#81 = CARTESIAN_POINT ( 'NONE',  ( 0.000000000000000000, 0.000000000000000000, 0.000000000000000000 ) ) ;
#82 = LOCAL_TIME ( 19, 17, 15.00000000000000000, #204 ) ;
#83 = COORDINATED_UNIVERSAL_TIME_OFFSET ( 1, 0, .AHEAD. ) ;
#84 = ORIENTED_EDGE ( 'NONE', *, *, #12, .F. ) ;
#85 = DATE_AND_TIME ( #104, #136 ) ;
#86 = DIRECTION ( 'NONE',  ( 1.000000000000000000, 0.000000000000000000, 0.000000000000000000 ) ) ;
#87 = PERSON_AND_ORGANIZATION ( #71, #76 ) ;
#88 = CARTESIAN_POINT ( 'NONE',  ( -6.500000000000000888, 0.000000000000000000, 7.000000000000000000 ) ) ;
#89 = LINE ( 'NONE', #149, #78 ) ;
#90 = PRODUCT_DEFINITION ( 'NEZNÁMÝ', '', #54, #226 ) ;
#91 = ADVANCED_FACE ( 'NONE', ( #51 ), #186, .F. ) ;
#92 =( NAMED_UNIT ( * ) PLANE_ANGLE_UNIT ( ) SI_UNIT ( $, .RADIAN. ) );
#93 = DIRECTION ( 'NONE',  ( -0.000000000000000000, -0.000000000000000000, -1.000000000000000000 ) ) ;
#94 = ORIENTED_EDGE ( 'NONE', *, *, #228, .T. ) ;
#95 = DIRECTION ( 'NONE',  ( -0.000000000000000000, -0.000000000000000000, -1.000000000000000000 ) ) ;
#96 = EDGE_LOOP ( 'NONE', ( #58, #29, #120, #199 ) ) ;
#97 = CARTESIAN_POINT ( 'NONE',  ( 6.500000000000000888, 7.960204194457796463E-16, 132.0000000000000000 ) ) ;
#98 = ORIENTED_EDGE ( 'NONE', *, *, #110, .F. ) ;
#99 = CYLINDRICAL_SURFACE ( 'NONE', #33, 11.00000000000000000 ) ;
#100 = APPROVAL_PERSON_ORGANIZATION ( #123, #139, #4 ) ;
#101 = DATE_AND_TIME ( #102, #151 ) ;
#102 = CALENDAR_DATE ( 2022, 7, 7 ) ;
#103 = PLANE ( 'NONE',  #53 ) ;
#104 = CALENDAR_DATE ( 2022, 7, 7 ) ;
#105 = FACE_BOUND ( 'NONE', #214, .T. ) ;
#106 = DIRECTION ( 'NONE',  ( 1.000000000000000000, 0.000000000000000000, -0.000000000000000000 ) ) ;
#107 = EDGE_CURVE ( 'NONE', #21, #180, #220, .T. ) ;
#108 = CARTESIAN_POINT ( 'NONE',  ( -6.500000000000000888, 0.000000000000000000, 132.0000000000000000 ) ) ;
#109 = LOCAL_TIME ( 19, 17, 15.00000000000000000, #245 ) ;
#110 = EDGE_CURVE ( 'NONE', #42, #32, #125, .T. ) ;
#111 = PRODUCT ( '0c85', '0c85', '', ( #7 ) ) ;
#112 = CARTESIAN_POINT ( 'NONE',  ( -11.00000000000000000, 0.000000000000000000, 7.000000000000000000 ) ) ;
#113 = LINE ( 'NONE', #112, #11 ) ;
#114 = AXIS2_PLACEMENT_3D ( 'NONE', #255, #213, #137 ) ;
#115 = DIRECTION ( 'NONE',  ( 1.000000000000000000, 0.000000000000000000, 0.000000000000000000 ) ) ;
#116 = ORIENTED_EDGE ( 'NONE', *, *, #233, .F. ) ;
#117 = FACE_OUTER_BOUND ( 'NONE', #215, .T. ) ;
#118 = AXIS2_PLACEMENT_3D ( 'NONE', #150, #6, #230 ) ;
#119 = CARTESIAN_POINT ( 'NONE',  ( 0.000000000000000000, 0.000000000000000000, 0.000000000000000000 ) ) ;
#120 = ORIENTED_EDGE ( 'NONE', *, *, #233, .T. ) ;
#121 = PERSON_AND_ORGANIZATION_ROLE ( 'classification_officer' ) ;
#122 = ORIENTED_EDGE ( 'NONE', *, *, #209, .F. ) ;
#123 = PERSON_AND_ORGANIZATION ( #71, #76 ) ;
#124 = CARTESIAN_POINT ( 'NONE',  ( 0.000000000000000000, 0.000000000000000000, 132.0000000000000000 ) ) ;
#125 = CIRCLE ( 'NONE', #10, 6.500000000000000888 ) ;
#126 = APPROVAL_DATE_TIME ( #44, #72 ) ;
#127 = CARTESIAN_POINT ( 'NONE',  ( -11.00000000000000000, 0.000000000000000000, 7.000000000000000000 ) ) ;
#128 = CC_DESIGN_PERSON_AND_ORGANIZATION_ASSIGNMENT ( #142, #48, ( #111 ) ) ;
#129 = PERSON_AND_ORGANIZATION ( #71, #76 ) ;
#130 = CARTESIAN_POINT ( 'NONE',  ( 0.000000000000000000, 0.000000000000000000, 0.000000000000000000 ) ) ;
#131 = CIRCLE ( 'NONE', #114, 6.500000000000000888 ) ;
#132 = DIRECTION ( 'NONE',  ( 0.000000000000000000, 0.000000000000000000, 1.000000000000000000 ) ) ;
#133 = ADVANCED_BREP_SHAPE_REPRESENTATION ( '0c85', ( #30, #182 ), #206 ) ;
#134 = AXIS2_PLACEMENT_3D ( 'NONE', #119, #154, #2 ) ;
#135 = ADVANCED_FACE ( 'NONE', ( #164 ), #246, .T. ) ;
#136 = LOCAL_TIME ( 19, 17, 15.00000000000000000, #146 ) ;
#137 = DIRECTION ( 'NONE',  ( 1.000000000000000000, 0.000000000000000000, 0.000000000000000000 ) ) ;
#138 =( NAMED_UNIT ( * ) SI_UNIT ( $, .STERADIAN. ) SOLID_ANGLE_UNIT ( ) );
#139 = APPROVAL ( #28, 'NEURÈENÝ' ) ;
#140 = ORIENTED_EDGE ( 'NONE', *, *, #13, .F. ) ;
#141 = DIRECTION ( 'NONE',  ( -1.000000000000000000, 0.000000000000000000, 0.000000000000000000 ) ) ;
#142 = PERSON_AND_ORGANIZATION ( #71, #76 ) ;
#143 = ORIENTED_EDGE ( 'NONE', *, *, #181, .T. ) ;
#144 = APPROVAL_STATUS ( 'not_yet_approved' ) ;
#145 = EDGE_LOOP ( 'NONE', ( #147, #218 ) ) ;
#146 = COORDINATED_UNIVERSAL_TIME_OFFSET ( 1, 0, .AHEAD. ) ;
#147 = ORIENTED_EDGE ( 'NONE', *, *, #107, .T. ) ;
#148 = CALENDAR_DATE ( 2022, 7, 7 ) ;
#149 = CARTESIAN_POINT ( 'NONE',  ( 11.00000000000000000, 1.347111479062088405E-15, 7.000000000000000000 ) ) ;
#150 = CARTESIAN_POINT ( 'NONE',  ( 0.000000000000000000, 0.000000000000000000, 7.000000000000000000 ) ) ;
#151 = LOCAL_TIME ( 19, 17, 15.00000000000000000, #160 ) ;
#152 = DIRECTION ( 'NONE',  ( -0.000000000000000000, -0.000000000000000000, -1.000000000000000000 ) ) ;
#153 = AXIS2_PLACEMENT_3D ( 'NONE', #175, #20, #197 ) ;
#154 = DIRECTION ( 'NONE',  ( 0.000000000000000000, 0.000000000000000000, 1.000000000000000000 ) ) ;
#155 = DIRECTION ( 'NONE',  ( -0.000000000000000000, -0.000000000000000000, -1.000000000000000000 ) ) ;
#156 = ADVANCED_FACE ( 'NONE', ( #59 ), #99, .T. ) ;
#157 = ORIENTED_EDGE ( 'NONE', *, *, #110, .T. ) ;
#158 = CC_DESIGN_DATE_AND_TIME_ASSIGNMENT ( #201, #247, ( #195 ) ) ;
#159 = DATE_AND_TIME ( #68, #109 ) ;
#160 = COORDINATED_UNIVERSAL_TIME_OFFSET ( 1, 0, .AHEAD. ) ;
#161 = VERTEX_POINT ( 'NONE', #238 ) ;
#162 = AXIS2_PLACEMENT_3D ( 'NONE', #81, #173, #179 ) ;
#163 = APPROVAL_STATUS ( 'not_yet_approved' ) ;
#164 = FACE_OUTER_BOUND ( 'NONE', #3, .T. ) ;
#165 = CC_DESIGN_PERSON_AND_ORGANIZATION_ASSIGNMENT ( #50, #225, ( #54 ) ) ;
#166 = CALENDAR_DATE ( 2022, 7, 7 ) ;
#167 = DIRECTION ( 'NONE',  ( 0.000000000000000000, 0.000000000000000000, 1.000000000000000000 ) ) ;
#168 = PRODUCT_RELATED_PRODUCT_CATEGORY ( 'detail', '', ( #111 ) ) ;
#169 = FACE_OUTER_BOUND ( 'NONE', #145, .T. ) ;
#170 = CC_DESIGN_SECURITY_CLASSIFICATION ( #195, ( #54 ) ) ;
#171 = ADVANCED_FACE ( 'NONE', ( #117 ), #219, .T. ) ;
#172 = CIRCLE ( 'NONE', #153, 6.500000000000000888 ) ;
#173 = DIRECTION ( 'NONE',  ( 0.000000000000000000, 0.000000000000000000, 1.000000000000000000 ) ) ;
#174 = CARTESIAN_POINT ( 'NONE',  ( 0.000000000000000000, 0.000000000000000000, 132.0000000000000000 ) ) ;
#175 = CARTESIAN_POINT ( 'NONE',  ( 0.000000000000000000, 0.000000000000000000, 132.0000000000000000 ) ) ;
#176 = AXIS2_PLACEMENT_3D ( 'NONE', #64, #167, #249 ) ;
#177 = EDGE_LOOP ( 'NONE', ( #84, #56, #70, #94 ) ) ;
#178 = CIRCLE ( 'NONE', #176, 11.00000000000000000 ) ;
#179 = DIRECTION ( 'NONE',  ( 1.000000000000000000, 0.000000000000000000, 0.000000000000000000 ) ) ;
#180 = VERTEX_POINT ( 'NONE', #235 ) ;
#181 = EDGE_CURVE ( 'NONE', #9, #161, #172, .T. ) ;
#182 = AXIS2_PLACEMENT_3D ( 'NONE', #57, #38, #115 ) ;
#183 = DIRECTION ( 'NONE',  ( -0.000000000000000000, -0.000000000000000000, -1.000000000000000000 ) ) ;
#184 = PERSON_AND_ORGANIZATION ( #71, #76 ) ;
#185 = CC_DESIGN_PERSON_AND_ORGANIZATION_ASSIGNMENT ( #184, #63, ( #90 ) ) ;
#186 = PLANE ( 'NONE',  #251 ) ;
#187 = EDGE_CURVE ( 'NONE', #200, #210, #65, .T. ) ;
#188 = PERSON_AND_ORGANIZATION ( #71, #76 ) ;
#189 = ORIENTED_EDGE ( 'NONE', *, *, #13, .T. ) ;
#190 = CARTESIAN_POINT ( 'NONE',  ( 0.000000000000000000, 0.000000000000000000, 7.000000000000000000 ) ) ;
#191 = FACE_OUTER_BOUND ( 'NONE', #96, .T. ) ;
#192 = EDGE_CURVE ( 'NONE', #32, #42, #131, .T. ) ;
#193 = PRODUCT_DEFINITION_SHAPE ( 'NONE', 'NONE',  #90 ) ;
#194 = DIRECTION ( 'NONE',  ( -1.000000000000000000, 0.000000000000000000, 0.000000000000000000 ) ) ;
#195 = SECURITY_CLASSIFICATION ( '', '', #26 ) ;
#196 = APPROVAL ( #144, 'NEURÈENÝ' ) ;
#197 = DIRECTION ( 'NONE',  ( 1.000000000000000000, 0.000000000000000000, 0.000000000000000000 ) ) ;
#198 = DIRECTION ( 'NONE',  ( -1.000000000000000000, 0.000000000000000000, 0.000000000000000000 ) ) ;
#199 = ORIENTED_EDGE ( 'NONE', *, *, #192, .T. ) ;
#200 = VERTEX_POINT ( 'NONE', #79 ) ;
#201 = DATE_AND_TIME ( #166, #216 ) ;
#202 = ORIENTED_EDGE ( 'NONE', *, *, #187, .F. ) ;
#203 = CARTESIAN_POINT ( 'NONE',  ( 6.500000000000000888, 7.960204194457796463E-16, 7.000000000000000000 ) ) ;
#204 = COORDINATED_UNIVERSAL_TIME_OFFSET ( 1, 0, .AHEAD. ) ;
#205 = ORIENTED_EDGE ( 'NONE', *, *, #192, .F. ) ;
#206 =( GEOMETRIC_REPRESENTATION_CONTEXT ( 3 ) GLOBAL_UNCERTAINTY_ASSIGNED_CONTEXT ( ( #241 ) ) GLOBAL_UNIT_ASSIGNED_CONTEXT ( ( #212, #92, #138 ) ) REPRESENTATION_CONTEXT ( 'NONE', 'WORKASPACE' ) );
#207 = PERSON_AND_ORGANIZATION_ROLE ( 'creator' ) ;
#208 = CYLINDRICAL_SURFACE ( 'NONE', #234, 6.500000000000000888 ) ;
#209 = EDGE_CURVE ( 'NONE', #21, #210, #113, .T. ) ;
#210 = VERTEX_POINT ( 'NONE', #18 ) ;
#211 = EDGE_CURVE ( 'NONE', #161, #42, #252, .T. ) ;
#212 =( LENGTH_UNIT ( ) NAMED_UNIT ( * ) SI_UNIT ( .MILLI., .METRE. ) );
#213 = DIRECTION ( 'NONE',  ( 0.000000000000000000, 0.000000000000000000, 1.000000000000000000 ) ) ;
#214 = EDGE_LOOP ( 'NONE', ( #205, #98 ) ) ;
#215 = EDGE_LOOP ( 'NONE', ( #66, #16, #80, #122 ) ) ;
#216 = LOCAL_TIME ( 19, 17, 15.00000000000000000, #83 ) ;
#217 = CARTESIAN_POINT ( 'NONE',  ( 0.000000000000000000, 0.000000000000000000, 132.0000000000000000 ) ) ;
#218 = ORIENTED_EDGE ( 'NONE', *, *, #61, .T. ) ;
#219 = CYLINDRICAL_SURFACE ( 'NONE', #221, 11.00000000000000000 ) ;
#220 = CIRCLE ( 'NONE', #118, 11.00000000000000000 ) ;
#221 = AXIS2_PLACEMENT_3D ( 'NONE', #36, #95, #198 ) ;
#222 = APPROVAL_ROLE ( '' ) ;
#223 = DIRECTION ( 'NONE',  ( 0.000000000000000000, 0.000000000000000000, 1.000000000000000000 ) ) ;
#224 = DATE_TIME_ROLE ( 'creation_date' ) ;
#225 = PERSON_AND_ORGANIZATION_ROLE ( 'design_supplier' ) ;
#226 = DESIGN_CONTEXT ( 'detailed design', #40, 'design' ) ;
#227 = DIRECTION ( 'NONE',  ( 1.000000000000000000, 0.000000000000000000, 0.000000000000000000 ) ) ;
#228 = EDGE_CURVE ( 'NONE', #210, #200, #15, .T. ) ;
#229 = CC_DESIGN_APPROVAL ( #72, ( #90 ) ) ;
#230 = DIRECTION ( 'NONE',  ( 1.000000000000000000, 0.000000000000000000, 0.000000000000000000 ) ) ;
#231 = ADVANCED_FACE ( 'NONE', ( #14 ), #55, .T. ) ;
#232 = APPROVAL_PERSON_ORGANIZATION ( #129, #196, #24 ) ;
#233 = EDGE_CURVE ( 'NONE', #9, #32, #236, .T. ) ;
#234 = AXIS2_PLACEMENT_3D ( 'NONE', #124, #27, #244 ) ;
#235 = CARTESIAN_POINT ( 'NONE',  ( 11.00000000000000000, 1.347111479062088405E-15, 7.000000000000000000 ) ) ;
#236 = LINE ( 'NONE', #77, #74 ) ;
#237 = CLOSED_SHELL ( 'NONE', ( #231, #171, #156, #17, #91, #67, #135 ) ) ;
#238 = CARTESIAN_POINT ( 'NONE',  ( 6.500000000000000888, 7.960204194457796463E-16, 132.0000000000000000 ) ) ;
#239 = ORIENTED_EDGE ( 'NONE', *, *, #211, .T. ) ;
#240 = APPROVAL_DATE_TIME ( #101, #196 ) ;
#241 = UNCERTAINTY_MEASURE_WITH_UNIT (LENGTH_MEASURE( 1.000000000000000082E-05 ), #212, 'distance_accuracy_value', 'NONE');
#242 = AXIS2_PLACEMENT_3D ( 'NONE', #217, #22, #39 ) ;
#243 = PERSON_AND_ORGANIZATION ( #71, #76 ) ;
#244 = DIRECTION ( 'NONE',  ( -1.000000000000000000, 0.000000000000000000, 0.000000000000000000 ) ) ;
#245 = COORDINATED_UNIVERSAL_TIME_OFFSET ( 1, 0, .AHEAD. ) ;
#246 = PLANE ( 'NONE',  #242 ) ;
#247 = DATE_TIME_ROLE ( 'classification_date' ) ;
#248 = CARTESIAN_POINT ( 'NONE',  ( 0.000000000000000000, 0.000000000000000000, 132.0000000000000000 ) ) ;
#249 = DIRECTION ( 'NONE',  ( 1.000000000000000000, 0.000000000000000000, 0.000000000000000000 ) ) ;
#250 = APPROVAL_PERSON_ORGANIZATION ( #243, #72, #222 ) ;
#251 = AXIS2_PLACEMENT_3D ( 'NONE', #130, #31, #106 ) ;
#252 = LINE ( 'NONE', #97, #60 ) ;
#253 = CC_DESIGN_APPROVAL ( #139, ( #54 ) ) ;
#254 = APPLICATION_CONTEXT ( 'configuration controlled 3d designs of mechanical parts and assemblies' ) ;
#255 = CARTESIAN_POINT ( 'NONE',  ( 0.000000000000000000, 0.000000000000000000, 7.000000000000000000 ) ) ;
ENDSEC;
END-ISO-10303-21;
