ISO-10303-21;
HEADER;
FILE_DESCRIPTION (( 'STEP AP203' ),
    '1' );
FILE_NAME ('4e0c.STEP',
    '2022-07-07T17:24:05',
    ( '' ),
    ( '' ),
    'SwSTEP 2.0',
    'SolidWorks 2019',
    '' );
FILE_SCHEMA (( 'CONFIG_CONTROL_DESIGN' ));
ENDSEC;

DATA;
#1 = CALENDAR_DATE ( 2022, 7, 7 ) ;
#2 = PERSON_AND_ORGANIZATION_ROLE ( 'design_owner' ) ;
#3 = EDGE_LOOP ( 'NONE', ( #26, #226 ) ) ;
#4 = CARTESIAN_POINT ( 'NONE',  ( 8.000000000000000000, 9.797174393178825657E-16, 5.000000000000000000 ) ) ;
#5 = FACE_BOUND ( 'NONE', #119, .T. ) ;
#6 = CARTESIAN_POINT ( 'NONE',  ( 8.000000000000000000, 9.797174393178825657E-16, 0.000000000000000000 ) ) ;
#7 = CYLINDRICAL_SURFACE ( 'NONE', #87, 8.000000000000000000 ) ;
#8 = APPROVAL ( #220, 'NEURÈENÝ' ) ;
#9 = APPROVAL_PERSON_ORGANIZATION ( #40, #8, #98 ) ;
#10 = CYLINDRICAL_SURFACE ( 'NONE', #155, 5.250000000000000000 ) ;
#11 = EDGE_CURVE ( 'NONE', #231, #164, #58, .T. ) ;
#12 = ORIENTED_EDGE ( 'NONE', *, *, #207, .T. ) ;
#13 = CARTESIAN_POINT ( 'NONE',  ( 0.000000000000000000, 0.000000000000000000, 320.0000000000000000 ) ) ;
#14 = VERTEX_POINT ( 'NONE', #251 ) ;
#15 = COORDINATED_UNIVERSAL_TIME_OFFSET ( 1, 0, .AHEAD. ) ;
#16 = APPROVAL ( #79, 'NEURÈENÝ' ) ;
#17 = PERSON_AND_ORGANIZATION ( #235, #127 ) ;
#18 = PERSON_AND_ORGANIZATION_ROLE ( 'classification_officer' ) ;
#19 = CARTESIAN_POINT ( 'NONE',  ( 0.000000000000000000, 0.000000000000000000, 0.000000000000000000 ) ) ;
#20 = PERSON_AND_ORGANIZATION ( #235, #127 ) ;
#21 = DIRECTION ( 'NONE',  ( 1.000000000000000000, 0.000000000000000000, -0.000000000000000000 ) ) ;
#22 = APPROVAL_PERSON_ORGANIZATION ( #17, #30, #101 ) ;
#23 = LINE ( 'NONE', #244, #65 ) ;
#24 = ORIENTED_EDGE ( 'NONE', *, *, #173, .T. ) ;
#25 = DIRECTION ( 'NONE',  ( -1.000000000000000000, 0.000000000000000000, 0.000000000000000000 ) ) ;
#26 = ORIENTED_EDGE ( 'NONE', *, *, #178, .T. ) ;
#27 = CARTESIAN_POINT ( 'NONE',  ( 0.000000000000000000, 0.000000000000000000, 5.000000000000000000 ) ) ;
#28 = DIRECTION ( 'NONE',  ( 1.000000000000000000, 0.000000000000000000, 0.000000000000000000 ) ) ;
#29 = CC_DESIGN_DATE_AND_TIME_ASSIGNMENT ( #179, #199, ( #211 ) ) ;
#30 = APPROVAL ( #38, 'NEURÈENÝ' ) ;
#31 = PLANE ( 'NONE',  #248 ) ;
#32 = AXIS2_PLACEMENT_3D ( 'NONE', #136, #132, #137 ) ;
#33 = CIRCLE ( 'NONE', #174, 8.000000000000000000 ) ;
#34 = CYLINDRICAL_SURFACE ( 'NONE', #53, 5.250000000000000000 ) ;
#35 = FACE_OUTER_BOUND ( 'NONE', #85, .T. ) ;
#36 = ORIENTED_EDGE ( 'NONE', *, *, #196, .F. ) ;
#37 = APPROVAL_PERSON_ORGANIZATION ( #159, #16, #238 ) ;
#38 = APPROVAL_STATUS ( 'not_yet_approved' ) ;
#39 = CC_DESIGN_PERSON_AND_ORGANIZATION_ASSIGNMENT ( #62, #18, ( #211 ) ) ;
#40 = PERSON_AND_ORGANIZATION ( #235, #127 ) ;
#41 =( NAMED_UNIT ( * ) PLANE_ANGLE_UNIT ( ) SI_UNIT ( $, .RADIAN. ) );
#42 = LOCAL_TIME ( 19, 24, 5.000000000000000000, #15 ) ;
#43 = CARTESIAN_POINT ( 'NONE',  ( 0.000000000000000000, 0.000000000000000000, 5.000000000000000000 ) ) ;
#44 = LINE ( 'NONE', #222, #95 ) ;
#45 = ORIENTED_EDGE ( 'NONE', *, *, #178, .F. ) ;
#46 = CARTESIAN_POINT ( 'NONE',  ( 0.000000000000000000, 0.000000000000000000, 5.000000000000000000 ) ) ;
#47 = PLANE ( 'NONE',  #113 ) ;
#48 = CLOSED_SHELL ( 'NONE', ( #135, #152, #117, #76, #71, #100, #172 ) ) ;
#49 = MANIFOLD_SOLID_BREP ( 'Pøidat vysunutím3', #48 ) ;
#50 = ORIENTED_EDGE ( 'NONE', *, *, #157, .F. ) ;
#51 = CC_DESIGN_PERSON_AND_ORGANIZATION_ASSIGNMENT ( #83, #218, ( #120 ) ) ;
#52 = FACE_OUTER_BOUND ( 'NONE', #96, .T. ) ;
#53 = AXIS2_PLACEMENT_3D ( 'NONE', #116, #215, #193 ) ;
#54 = CYLINDRICAL_SURFACE ( 'NONE', #32, 8.000000000000000000 ) ;
#55 = CC_DESIGN_PERSON_AND_ORGANIZATION_ASSIGNMENT ( #20, #2, ( #252 ) ) ;
#56 = DESIGN_CONTEXT ( 'detailed design', #225, 'design' ) ;
#57 = LOCAL_TIME ( 19, 24, 5.000000000000000000, #59 ) ;
#58 = CIRCLE ( 'NONE', #185, 5.250000000000000000 ) ;
#59 = COORDINATED_UNIVERSAL_TIME_OFFSET ( 1, 0, .AHEAD. ) ;
#60 = PERSON_AND_ORGANIZATION_ROLE ( 'creator' ) ;
#61 = CARTESIAN_POINT ( 'NONE',  ( 5.250000000000000000, 6.429395695523604153E-16, 320.0000000000000000 ) ) ;
#62 = PERSON_AND_ORGANIZATION ( #235, #127 ) ;
#63 = ORIENTED_EDGE ( 'NONE', *, *, #97, .T. ) ;
#64 =( LENGTH_UNIT ( ) NAMED_UNIT ( * ) SI_UNIT ( .MILLI., .METRE. ) );
#65 = VECTOR ( 'NONE', #181, 1000.000000000000000 ) ;
#66 = CARTESIAN_POINT ( 'NONE',  ( 0.000000000000000000, 0.000000000000000000, 0.000000000000000000 ) ) ;
#67 = EDGE_CURVE ( 'NONE', #188, #223, #195, .T. ) ;
#68 = CARTESIAN_POINT ( 'NONE',  ( 0.000000000000000000, 0.000000000000000000, 0.000000000000000000 ) ) ;
#69 = DIRECTION ( 'NONE',  ( -0.000000000000000000, -0.000000000000000000, -1.000000000000000000 ) ) ;
#70 = EDGE_LOOP ( 'NONE', ( #192, #74, #149, #112 ) ) ;
#71 = ADVANCED_FACE ( 'NONE', ( #52 ), #47, .F. ) ;
#72 = CC_DESIGN_APPROVAL ( #30, ( #186 ) ) ;
#73 = FACE_OUTER_BOUND ( 'NONE', #139, .T. ) ;
#74 = ORIENTED_EDGE ( 'NONE', *, *, #161, .T. ) ;
#75 = DIRECTION ( 'NONE',  ( 0.000000000000000000, 0.000000000000000000, 1.000000000000000000 ) ) ;
#76 = ADVANCED_FACE ( 'NONE', ( #5, #213 ), #31, .T. ) ;
#77 = EDGE_CURVE ( 'NONE', #164, #231, #167, .T. ) ;
#78 = LOCAL_TIME ( 19, 24, 5.000000000000000000, #80 ) ;
#79 = APPROVAL_STATUS ( 'not_yet_approved' ) ;
#80 = COORDINATED_UNIVERSAL_TIME_OFFSET ( 1, 0, .AHEAD. ) ;
#81 = SECURITY_CLASSIFICATION_LEVEL ( 'unclassified' ) ;
#82 = CARTESIAN_POINT ( 'NONE',  ( -5.250000000000000000, 0.000000000000000000, 5.000000000000000000 ) ) ;
#83 = PERSON_AND_ORGANIZATION ( #235, #127 ) ;
#84 = APPLICATION_PROTOCOL_DEFINITION ( 'international standard', 'config_control_design', 1994, #118 ) ;
#85 = EDGE_LOOP ( 'NONE', ( #94, #129, #12, #109 ) ) ;
#86 = EDGE_LOOP ( 'NONE', ( #36, #171, #63, #115 ) ) ;
#87 = AXIS2_PLACEMENT_3D ( 'NONE', #43, #182, #25 ) ;
#88 = AXIS2_PLACEMENT_3D ( 'NONE', #241, #243, #143 ) ;
#89 = DIRECTION ( 'NONE',  ( -0.000000000000000000, -0.000000000000000000, -1.000000000000000000 ) ) ;
#90 =( GEOMETRIC_REPRESENTATION_CONTEXT ( 3 ) GLOBAL_UNCERTAINTY_ASSIGNED_CONTEXT ( ( #140 ) ) GLOBAL_UNIT_ASSIGNED_CONTEXT ( ( #64, #41, #111 ) ) REPRESENTATION_CONTEXT ( 'NONE', 'WORKASPACE' ) );
#91 = ORIENTED_EDGE ( 'NONE', *, *, #77, .T. ) ;
#92 = DIRECTION ( 'NONE',  ( 1.000000000000000000, 0.000000000000000000, -0.000000000000000000 ) ) ;
#93 = EDGE_LOOP ( 'NONE', ( #208, #204 ) ) ;
#94 = ORIENTED_EDGE ( 'NONE', *, *, #239, .F. ) ;
#95 = VECTOR ( 'NONE', #128, 1000.000000000000000 ) ;
#96 = EDGE_LOOP ( 'NONE', ( #50, #168 ) ) ;
#97 = EDGE_CURVE ( 'NONE', #14, #224, #227, .T. ) ;
#98 = APPROVAL_ROLE ( '' ) ;
#99 = LOCAL_TIME ( 19, 24, 5.000000000000000000, #125 ) ;
#100 = ADVANCED_FACE ( 'NONE', ( #73 ), #10, .T. ) ;
#101 = APPROVAL_ROLE ( '' ) ;
#102 = DIRECTION ( 'NONE',  ( 0.000000000000000000, 0.000000000000000000, 1.000000000000000000 ) ) ;
#103 = AXIS2_PLACEMENT_3D ( 'NONE', #13, #75, #154 ) ;
#104 = APPLICATION_PROTOCOL_DEFINITION ( 'international standard', 'config_control_design', 1994, #225 ) ;
#105 = CARTESIAN_POINT ( 'NONE',  ( -8.000000000000000000, 0.000000000000000000, 0.000000000000000000 ) ) ;
#106 = DIRECTION ( 'NONE',  ( -0.000000000000000000, -0.000000000000000000, -1.000000000000000000 ) ) ;
#107 = CARTESIAN_POINT ( 'NONE',  ( 0.000000000000000000, 0.000000000000000000, 0.000000000000000000 ) ) ;
#108 = DIRECTION ( 'NONE',  ( 0.000000000000000000, 0.000000000000000000, 1.000000000000000000 ) ) ;
#109 = ORIENTED_EDGE ( 'NONE', *, *, #97, .F. ) ;
#110 = ORIENTED_EDGE ( 'NONE', *, *, #161, .F. ) ;
#111 =( NAMED_UNIT ( * ) SI_UNIT ( $, .STERADIAN. ) SOLID_ANGLE_UNIT ( ) );
#112 = ORIENTED_EDGE ( 'NONE', *, *, #173, .F. ) ;
#113 = AXIS2_PLACEMENT_3D ( 'NONE', #66, #130, #92 ) ;
#114 = FACE_OUTER_BOUND ( 'NONE', #86, .T. ) ;
#115 = ORIENTED_EDGE ( 'NONE', *, *, #157, .T. ) ;
#116 = CARTESIAN_POINT ( 'NONE',  ( 0.000000000000000000, 0.000000000000000000, 320.0000000000000000 ) ) ;
#117 = ADVANCED_FACE ( 'NONE', ( #114 ), #54, .T. ) ;
#118 = APPLICATION_CONTEXT ( 'configuration controlled 3d designs of mechanical parts and assemblies' ) ;
#119 = EDGE_LOOP ( 'NONE', ( #230, #148 ) ) ;
#120 = PRODUCT_DEFINITION ( 'NEZNÁMÝ', '', #186, #56 ) ;
#121 = CALENDAR_DATE ( 2022, 7, 7 ) ;
#122 = VECTOR ( 'NONE', #106, 1000.000000000000000 ) ;
#123 = CALENDAR_DATE ( 2022, 7, 7 ) ;
#124 = DIRECTION ( 'NONE',  ( 0.000000000000000000, 0.000000000000000000, 1.000000000000000000 ) ) ;
#125 = COORDINATED_UNIVERSAL_TIME_OFFSET ( 1, 0, .AHEAD. ) ;
#126 = LINE ( 'NONE', #200, #122 ) ;
#127 = ORGANIZATION ( 'NEURÈENÝ', 'NEURÈENÝ', '' ) ;
#128 = DIRECTION ( 'NONE',  ( -0.000000000000000000, -0.000000000000000000, -1.000000000000000000 ) ) ;
#129 = ORIENTED_EDGE ( 'NONE', *, *, #196, .T. ) ;
#130 = DIRECTION ( 'NONE',  ( 0.000000000000000000, 0.000000000000000000, 1.000000000000000000 ) ) ;
#131 = DIRECTION ( 'NONE',  ( 0.000000000000000000, 0.000000000000000000, 1.000000000000000000 ) ) ;
#132 = DIRECTION ( 'NONE',  ( -0.000000000000000000, -0.000000000000000000, -1.000000000000000000 ) ) ;
#133 = CC_DESIGN_APPROVAL ( #8, ( #211 ) ) ;
#134 = CC_DESIGN_PERSON_AND_ORGANIZATION_ASSIGNMENT ( #217, #242, ( #186 ) ) ;
#135 = ADVANCED_FACE ( 'NONE', ( #212 ), #34, .T. ) ;
#136 = CARTESIAN_POINT ( 'NONE',  ( 0.000000000000000000, 0.000000000000000000, 5.000000000000000000 ) ) ;
#137 = DIRECTION ( 'NONE',  ( -1.000000000000000000, 0.000000000000000000, 0.000000000000000000 ) ) ;
#138 = CIRCLE ( 'NONE', #141, 8.000000000000000000 ) ;
#139 = EDGE_LOOP ( 'NONE', ( #110, #45, #24, #91 ) ) ;
#140 = UNCERTAINTY_MEASURE_WITH_UNIT (LENGTH_MEASURE( 1.000000000000000082E-05 ), #64, 'distance_accuracy_value', 'NONE');
#141 = AXIS2_PLACEMENT_3D ( 'NONE', #203, #108, #180 ) ;
#142 = DATE_AND_TIME ( #123, #156 ) ;
#143 = DIRECTION ( 'NONE',  ( 1.000000000000000000, 0.000000000000000000, 0.000000000000000000 ) ) ;
#144 = CALENDAR_DATE ( 2022, 7, 7 ) ;
#145 = MECHANICAL_CONTEXT ( 'NONE', #118, 'mechanical' ) ;
#146 = AXIS2_PLACEMENT_3D ( 'NONE', #27, #170, #205 ) ;
#147 = CARTESIAN_POINT ( 'NONE',  ( -5.250000000000000000, 0.000000000000000000, 320.0000000000000000 ) ) ;
#148 = ORIENTED_EDGE ( 'NONE', *, *, #11, .F. ) ;
#149 = ORIENTED_EDGE ( 'NONE', *, *, #11, .T. ) ;
#150 = CARTESIAN_POINT ( 'NONE',  ( 0.000000000000000000, 0.000000000000000000, 5.000000000000000000 ) ) ;
#151 = DIRECTION ( 'NONE',  ( 1.000000000000000000, 0.000000000000000000, -0.000000000000000000 ) ) ;
#152 = ADVANCED_FACE ( 'NONE', ( #35 ), #7, .T. ) ;
#153 = CARTESIAN_POINT ( 'NONE',  ( 0.000000000000000000, 0.000000000000000000, 320.0000000000000000 ) ) ;
#154 = DIRECTION ( 'NONE',  ( 1.000000000000000000, 0.000000000000000000, 0.000000000000000000 ) ) ;
#155 = AXIS2_PLACEMENT_3D ( 'NONE', #153, #89, #209 ) ;
#156 = LOCAL_TIME ( 19, 24, 5.000000000000000000, #162 ) ;
#157 = EDGE_CURVE ( 'NONE', #224, #249, #197, .T. ) ;
#158 = APPROVAL_DATE_TIME ( #176, #16 ) ;
#159 = PERSON_AND_ORGANIZATION ( #235, #127 ) ;
#160 = DATE_AND_TIME ( #121, #57 ) ;
#161 = EDGE_CURVE ( 'NONE', #188, #231, #44, .T. ) ;
#162 = COORDINATED_UNIVERSAL_TIME_OFFSET ( 1, 0, .AHEAD. ) ;
#163 = CARTESIAN_POINT ( 'NONE',  ( 5.250000000000000000, 6.429395695523604153E-16, 5.000000000000000000 ) ) ;
#164 = VERTEX_POINT ( 'NONE', #82 ) ;
#165 = CARTESIAN_POINT ( 'NONE',  ( 0.000000000000000000, 0.000000000000000000, 320.0000000000000000 ) ) ;
#166 = CARTESIAN_POINT ( 'NONE',  ( -8.000000000000000000, 0.000000000000000000, 5.000000000000000000 ) ) ;
#167 = CIRCLE ( 'NONE', #146, 5.250000000000000000 ) ;
#168 = ORIENTED_EDGE ( 'NONE', *, *, #207, .F. ) ;
#169 = CC_DESIGN_PERSON_AND_ORGANIZATION_ASSIGNMENT ( #177, #60, ( #186 ) ) ;
#170 = DIRECTION ( 'NONE',  ( 0.000000000000000000, 0.000000000000000000, 1.000000000000000000 ) ) ;
#171 = ORIENTED_EDGE ( 'NONE', *, *, #232, .F. ) ;
#172 = ADVANCED_FACE ( 'NONE', ( #210 ), #219, .T. ) ;
#173 = EDGE_CURVE ( 'NONE', #223, #164, #23, .T. ) ;
#174 = AXIS2_PLACEMENT_3D ( 'NONE', #150, #183, #206 ) ;
#175 = CALENDAR_DATE ( 2022, 7, 7 ) ;
#176 = DATE_AND_TIME ( #1, #42 ) ;
#177 = PERSON_AND_ORGANIZATION ( #235, #127 ) ;
#178 = EDGE_CURVE ( 'NONE', #223, #188, #234, .T. ) ;
#179 = DATE_AND_TIME ( #144, #78 ) ;
#180 = DIRECTION ( 'NONE',  ( 1.000000000000000000, 0.000000000000000000, 0.000000000000000000 ) ) ;
#181 = DIRECTION ( 'NONE',  ( -0.000000000000000000, -0.000000000000000000, -1.000000000000000000 ) ) ;
#182 = DIRECTION ( 'NONE',  ( -0.000000000000000000, -0.000000000000000000, -1.000000000000000000 ) ) ;
#183 = DIRECTION ( 'NONE',  ( 0.000000000000000000, 0.000000000000000000, 1.000000000000000000 ) ) ;
#184 = DIRECTION ( 'NONE',  ( 0.000000000000000000, 0.000000000000000000, 1.000000000000000000 ) ) ;
#185 = AXIS2_PLACEMENT_3D ( 'NONE', #46, #184, #190 ) ;
#186 = PRODUCT_DEFINITION_FORMATION_WITH_SPECIFIED_SOURCE ( 'LIBOVOLNÝ', '', #252, .NOT_KNOWN. ) ;
#187 = ADVANCED_BREP_SHAPE_REPRESENTATION ( '4e0c', ( #49, #214 ), #90 ) ;
#188 = VERTEX_POINT ( 'NONE', #61 ) ;
#189 = VERTEX_POINT ( 'NONE', #4 ) ;
#190 = DIRECTION ( 'NONE',  ( 1.000000000000000000, 0.000000000000000000, 0.000000000000000000 ) ) ;
#191 = CC_DESIGN_APPROVAL ( #16, ( #120 ) ) ;
#192 = ORIENTED_EDGE ( 'NONE', *, *, #67, .F. ) ;
#193 = DIRECTION ( 'NONE',  ( -1.000000000000000000, 0.000000000000000000, 0.000000000000000000 ) ) ;
#194 = PRODUCT_DEFINITION_SHAPE ( 'NONE', 'NONE',  #120 ) ;
#195 = CIRCLE ( 'NONE', #103, 5.250000000000000000 ) ;
#196 = EDGE_CURVE ( 'NONE', #189, #249, #126, .T. ) ;
#197 = CIRCLE ( 'NONE', #198, 8.000000000000000000 ) ;
#198 = AXIS2_PLACEMENT_3D ( 'NONE', #107, #245, #246 ) ;
#199 = DATE_TIME_ROLE ( 'classification_date' ) ;
#200 = CARTESIAN_POINT ( 'NONE',  ( 8.000000000000000000, 9.797174393178825657E-16, 5.000000000000000000 ) ) ;
#201 = DATE_TIME_ROLE ( 'creation_date' ) ;
#202 = DIRECTION ( 'NONE',  ( 1.000000000000000000, 0.000000000000000000, 0.000000000000000000 ) ) ;
#203 = CARTESIAN_POINT ( 'NONE',  ( 0.000000000000000000, 0.000000000000000000, 5.000000000000000000 ) ) ;
#204 = ORIENTED_EDGE ( 'NONE', *, *, #239, .T. ) ;
#205 = DIRECTION ( 'NONE',  ( 1.000000000000000000, 0.000000000000000000, 0.000000000000000000 ) ) ;
#206 = DIRECTION ( 'NONE',  ( 1.000000000000000000, 0.000000000000000000, 0.000000000000000000 ) ) ;
#207 = EDGE_CURVE ( 'NONE', #249, #224, #229, .T. ) ;
#208 = ORIENTED_EDGE ( 'NONE', *, *, #232, .T. ) ;
#209 = DIRECTION ( 'NONE',  ( -1.000000000000000000, 0.000000000000000000, 0.000000000000000000 ) ) ;
#210 = FACE_OUTER_BOUND ( 'NONE', #3, .T. ) ;
#211 = SECURITY_CLASSIFICATION ( '', '', #81 ) ;
#212 = FACE_OUTER_BOUND ( 'NONE', #70, .T. ) ;
#213 = FACE_OUTER_BOUND ( 'NONE', #93, .T. ) ;
#214 = AXIS2_PLACEMENT_3D ( 'NONE', #68, #131, #28 ) ;
#215 = DIRECTION ( 'NONE',  ( -0.000000000000000000, -0.000000000000000000, -1.000000000000000000 ) ) ;
#216 = AXIS2_PLACEMENT_3D ( 'NONE', #19, #102, #202 ) ;
#217 = PERSON_AND_ORGANIZATION ( #235, #127 ) ;
#218 = PERSON_AND_ORGANIZATION_ROLE ( 'creator' ) ;
#219 = PLANE ( 'NONE',  #236 ) ;
#220 = APPROVAL_STATUS ( 'not_yet_approved' ) ;
#221 = CC_DESIGN_SECURITY_CLASSIFICATION ( #211, ( #186 ) ) ;
#222 = CARTESIAN_POINT ( 'NONE',  ( 5.250000000000000000, 6.429395695523604153E-16, 320.0000000000000000 ) ) ;
#223 = VERTEX_POINT ( 'NONE', #147 ) ;
#224 = VERTEX_POINT ( 'NONE', #105 ) ;
#225 = APPLICATION_CONTEXT ( 'configuration controlled 3d designs of mechanical parts and assemblies' ) ;
#226 = ORIENTED_EDGE ( 'NONE', *, *, #67, .T. ) ;
#227 = LINE ( 'NONE', #166, #253 ) ;
#228 = CC_DESIGN_DATE_AND_TIME_ASSIGNMENT ( #160, #201, ( #120 ) ) ;
#229 = CIRCLE ( 'NONE', #216, 8.000000000000000000 ) ;
#230 = ORIENTED_EDGE ( 'NONE', *, *, #77, .F. ) ;
#231 = VERTEX_POINT ( 'NONE', #163 ) ;
#232 = EDGE_CURVE ( 'NONE', #14, #189, #138, .T. ) ;
#233 = CARTESIAN_POINT ( 'NONE',  ( 0.000000000000000000, 0.000000000000000000, 5.000000000000000000 ) ) ;
#234 = CIRCLE ( 'NONE', #88, 5.250000000000000000 ) ;
#235 = PERSON ( 'NEURÈENÝ', 'NEURÈENÝ', 'NEURÈENÝ', ('NEURÈENÝ'), ('NEURÈENÝ'), ('NEURÈENÝ') ) ;
#236 = AXIS2_PLACEMENT_3D ( 'NONE', #165, #124, #21 ) ;
#237 = DATE_AND_TIME ( #175, #99 ) ;
#238 = APPROVAL_ROLE ( '' ) ;
#239 = EDGE_CURVE ( 'NONE', #189, #14, #33, .T. ) ;
#240 = APPROVAL_DATE_TIME ( #142, #30 ) ;
#241 = CARTESIAN_POINT ( 'NONE',  ( 0.000000000000000000, 0.000000000000000000, 320.0000000000000000 ) ) ;
#242 = PERSON_AND_ORGANIZATION_ROLE ( 'design_supplier' ) ;
#243 = DIRECTION ( 'NONE',  ( 0.000000000000000000, 0.000000000000000000, 1.000000000000000000 ) ) ;
#244 = CARTESIAN_POINT ( 'NONE',  ( -5.250000000000000000, 0.000000000000000000, 320.0000000000000000 ) ) ;
#245 = DIRECTION ( 'NONE',  ( 0.000000000000000000, 0.000000000000000000, 1.000000000000000000 ) ) ;
#246 = DIRECTION ( 'NONE',  ( 1.000000000000000000, 0.000000000000000000, 0.000000000000000000 ) ) ;
#247 = PRODUCT_RELATED_PRODUCT_CATEGORY ( 'detail', '', ( #252 ) ) ;
#248 = AXIS2_PLACEMENT_3D ( 'NONE', #233, #250, #151 ) ;
#249 = VERTEX_POINT ( 'NONE', #6 ) ;
#250 = DIRECTION ( 'NONE',  ( 0.000000000000000000, 0.000000000000000000, 1.000000000000000000 ) ) ;
#251 = CARTESIAN_POINT ( 'NONE',  ( -8.000000000000000000, 0.000000000000000000, 5.000000000000000000 ) ) ;
#252 = PRODUCT ( '4e0c', '4e0c', '', ( #145 ) ) ;
#253 = VECTOR ( 'NONE', #69, 1000.000000000000000 ) ;
#254 = APPROVAL_DATE_TIME ( #237, #8 ) ;
#255 = SHAPE_DEFINITION_REPRESENTATION ( #194, #187 ) ;
ENDSEC;
END-ISO-10303-21;
