ISO-10303-21;
HEADER;
FILE_DESCRIPTION (( 'STEP AP203' ),
    '1' );
FILE_NAME ('fe77.STEP',
    '2022-07-07T17:16:12',
    ( '' ),
    ( '' ),
    'SwSTEP 2.0',
    'SolidWorks 2019',
    '' );
FILE_SCHEMA (( 'CONFIG_CONTROL_DESIGN' ));
ENDSEC;

DATA;
#1 = AXIS2_PLACEMENT_3D ( 'NONE', #237, #49, #88 ) ;
#2 = ORIENTED_EDGE ( 'NONE', *, *, #44, .F. ) ;
#3 = CC_DESIGN_SECURITY_CLASSIFICATION ( #142, ( #234 ) ) ;
#4 = DIRECTION ( 'NONE',  ( 0.000000000000000000, 0.000000000000000000, 1.000000000000000000 ) ) ;
#5 = EDGE_CURVE ( 'NONE', #155, #15, #89, .T. ) ;
#6 = CIRCLE ( 'NONE', #117, 6.500000000000000888 ) ;
#7 = DIRECTION ( 'NONE',  ( -0.000000000000000000, -0.000000000000000000, -1.000000000000000000 ) ) ;
#8 = ADVANCED_FACE ( 'NONE', ( #101 ), #213, .F. ) ;
#9 = FACE_OUTER_BOUND ( 'NONE', #46, .T. ) ;
#10 = DIRECTION ( 'NONE',  ( -0.000000000000000000, -0.000000000000000000, -1.000000000000000000 ) ) ;
#11 = CARTESIAN_POINT ( 'NONE',  ( 0.000000000000000000, 0.000000000000000000, 507.0000000000000000 ) ) ;
#12 = EDGE_CURVE ( 'NONE', #83, #169, #113, .T. ) ;
#13 = CARTESIAN_POINT ( 'NONE',  ( 6.500000000000000888, 7.960204194457796463E-16, 507.0000000000000000 ) ) ;
#14 = AXIS2_PLACEMENT_3D ( 'NONE', #79, #158, #121 ) ;
#15 = VERTEX_POINT ( 'NONE', #141 ) ;
#16 = EDGE_CURVE ( 'NONE', #99, #85, #252, .T. ) ;
#17 = APPLICATION_PROTOCOL_DEFINITION ( 'international standard', 'config_control_design', 1994, #48 ) ;
#18 = DIRECTION ( 'NONE',  ( -0.000000000000000000, -0.000000000000000000, -1.000000000000000000 ) ) ;
#19 = ORIENTED_EDGE ( 'NONE', *, *, #196, .T. ) ;
#20 = DATE_TIME_ROLE ( 'classification_date' ) ;
#21 = AXIS2_PLACEMENT_3D ( 'NONE', #70, #238, #167 ) ;
#22 = APPROVAL_PERSON_ORGANIZATION ( #175, #239, #227 ) ;
#23 = ORIENTED_EDGE ( 'NONE', *, *, #28, .T. ) ;
#24 = ORIENTED_EDGE ( 'NONE', *, *, #189, .T. ) ;
#25 = FACE_OUTER_BOUND ( 'NONE', #87, .T. ) ;
#26 = DIRECTION ( 'NONE',  ( 0.000000000000000000, 0.000000000000000000, 1.000000000000000000 ) ) ;
#27 = LOCAL_TIME ( 19, 16, 12.00000000000000000, #104 ) ;
#28 = EDGE_CURVE ( 'NONE', #169, #83, #168, .T. ) ;
#29 = PLANE ( 'NONE',  #21 ) ;
#30 = AXIS2_PLACEMENT_3D ( 'NONE', #94, #118, #97 ) ;
#31 =( NAMED_UNIT ( * ) PLANE_ANGLE_UNIT ( ) SI_UNIT ( $, .RADIAN. ) );
#32 = CYLINDRICAL_SURFACE ( 'NONE', #171, 6.500000000000000888 ) ;
#33 = CARTESIAN_POINT ( 'NONE',  ( 0.000000000000000000, 0.000000000000000000, 507.0000000000000000 ) ) ;
#34 = DIRECTION ( 'NONE',  ( 0.000000000000000000, 0.000000000000000000, 1.000000000000000000 ) ) ;
#35 = ADVANCED_FACE ( 'NONE', ( #9 ), #32, .T. ) ;
#36 = PERSON_AND_ORGANIZATION ( #126, #205 ) ;
#37 = FACE_OUTER_BOUND ( 'NONE', #92, .T. ) ;
#38 = PERSON_AND_ORGANIZATION ( #126, #205 ) ;
#39 = CC_DESIGN_DATE_AND_TIME_ASSIGNMENT ( #178, #100, ( #133 ) ) ;
#40 = APPROVAL_DATE_TIME ( #232, #162 ) ;
#41 = VECTOR ( 'NONE', #188, 1000.000000000000000 ) ;
#42 = APPLICATION_CONTEXT ( 'configuration controlled 3d designs of mechanical parts and assemblies' ) ;
#43 = ORIENTED_EDGE ( 'NONE', *, *, #12, .F. ) ;
#44 = EDGE_CURVE ( 'NONE', #15, #155, #76, .T. ) ;
#45 = DIRECTION ( 'NONE',  ( 0.000000000000000000, 0.000000000000000000, 1.000000000000000000 ) ) ;
#46 = EDGE_LOOP ( 'NONE', ( #43, #129, #24, #182 ) ) ;
#47 = CYLINDRICAL_SURFACE ( 'NONE', #1, 11.00000000000000000 ) ;
#48 = APPLICATION_CONTEXT ( 'configuration controlled 3d designs of mechanical parts and assemblies' ) ;
#49 = DIRECTION ( 'NONE',  ( -0.000000000000000000, -0.000000000000000000, -1.000000000000000000 ) ) ;
#50 = PRODUCT ( 'fe77', 'fe77', '', ( #181 ) ) ;
#51 = CARTESIAN_POINT ( 'NONE',  ( 11.00000000000000000, 1.347111479062088405E-15, 0.000000000000000000 ) ) ;
#52 = APPLICATION_PROTOCOL_DEFINITION ( 'international standard', 'config_control_design', 1994, #42 ) ;
#53 = DIRECTION ( 'NONE',  ( 1.000000000000000000, 0.000000000000000000, -0.000000000000000000 ) ) ;
#54 = CC_DESIGN_APPROVAL ( #248, ( #142 ) ) ;
#55 = UNCERTAINTY_MEASURE_WITH_UNIT (LENGTH_MEASURE( 1.000000000000000082E-05 ), #73, 'distance_accuracy_value', 'NONE');
#56 = ADVANCED_FACE ( 'NONE', ( #37 ), #74, .T. ) ;
#57 = CARTESIAN_POINT ( 'NONE',  ( 0.000000000000000000, 0.000000000000000000, 0.000000000000000000 ) ) ;
#58 = APPROVAL_DATE_TIME ( #82, #239 ) ;
#59 = ORIENTED_EDGE ( 'NONE', *, *, #62, .F. ) ;
#60 = AXIS2_PLACEMENT_3D ( 'NONE', #199, #45, #132 ) ;
#61 = PERSON_AND_ORGANIZATION_ROLE ( 'design_supplier' ) ;
#62 = EDGE_CURVE ( 'NONE', #15, #85, #194, .T. ) ;
#63 = LOCAL_TIME ( 19, 16, 12.00000000000000000, #255 ) ;
#64 = DATE_AND_TIME ( #231, #236 ) ;
#65 = EDGE_LOOP ( 'NONE', ( #185, #2, #176, #147 ) ) ;
#66 = APPROVAL_ROLE ( '' ) ;
#67 = EDGE_LOOP ( 'NONE', ( #179, #180 ) ) ;
#68 = AXIS2_PLACEMENT_3D ( 'NONE', #220, #186, #153 ) ;
#69 = PRODUCT_DEFINITION_SHAPE ( 'NONE', 'NONE',  #133 ) ;
#70 = CARTESIAN_POINT ( 'NONE',  ( 0.000000000000000000, 0.000000000000000000, 7.000000000000000000 ) ) ;
#71 = ORIENTED_EDGE ( 'NONE', *, *, #5, .T. ) ;
#72 = FACE_BOUND ( 'NONE', #111, .T. ) ;
#73 =( LENGTH_UNIT ( ) NAMED_UNIT ( * ) SI_UNIT ( .MILLI., .METRE. ) );
#74 = CYLINDRICAL_SURFACE ( 'NONE', #14, 6.500000000000000888 ) ;
#75 = CARTESIAN_POINT ( 'NONE',  ( 0.000000000000000000, 0.000000000000000000, 7.000000000000000000 ) ) ;
#76 = CIRCLE ( 'NONE', #96, 11.00000000000000000 ) ;
#77 = ORIENTED_EDGE ( 'NONE', *, *, #173, .T. ) ;
#78 = PERSON_AND_ORGANIZATION ( #126, #205 ) ;
#79 = CARTESIAN_POINT ( 'NONE',  ( 0.000000000000000000, 0.000000000000000000, 507.0000000000000000 ) ) ;
#80 = PERSON_AND_ORGANIZATION_ROLE ( 'classification_officer' ) ;
#81 = AXIS2_PLACEMENT_3D ( 'NONE', #90, #110, #218 ) ;
#82 = DATE_AND_TIME ( #125, #164 ) ;
#83 = VERTEX_POINT ( 'NONE', #13 ) ;
#84 = APPROVAL_DATE_TIME ( #64, #248 ) ;
#85 = VERTEX_POINT ( 'NONE', #222 ) ;
#86 = LOCAL_TIME ( 19, 16, 12.00000000000000000, #159 ) ;
#87 = EDGE_LOOP ( 'NONE', ( #166, #71 ) ) ;
#88 = DIRECTION ( 'NONE',  ( -1.000000000000000000, 0.000000000000000000, 0.000000000000000000 ) ) ;
#89 = CIRCLE ( 'NONE', #131, 11.00000000000000000 ) ;
#90 = CARTESIAN_POINT ( 'NONE',  ( 0.000000000000000000, 0.000000000000000000, 7.000000000000000000 ) ) ;
#91 = DIRECTION ( 'NONE',  ( 0.000000000000000000, 0.000000000000000000, 1.000000000000000000 ) ) ;
#92 = EDGE_LOOP ( 'NONE', ( #228, #108, #77, #19 ) ) ;
#93 = CARTESIAN_POINT ( 'NONE',  ( -6.500000000000000888, 0.000000000000000000, 7.000000000000000000 ) ) ;
#94 = CARTESIAN_POINT ( 'NONE',  ( 0.000000000000000000, 0.000000000000000000, 0.000000000000000000 ) ) ;
#95 = LINE ( 'NONE', #172, #119 ) ;
#96 = AXIS2_PLACEMENT_3D ( 'NONE', #75, #91, #240 ) ;
#97 = DIRECTION ( 'NONE',  ( 1.000000000000000000, 0.000000000000000000, -0.000000000000000000 ) ) ;
#98 = CC_DESIGN_APPROVAL ( #162, ( #133 ) ) ;
#99 = VERTEX_POINT ( 'NONE', #51 ) ;
#100 = DATE_TIME_ROLE ( 'creation_date' ) ;
#101 = FACE_OUTER_BOUND ( 'NONE', #67, .T. ) ;
#102 = PERSON_AND_ORGANIZATION ( #126, #205 ) ;
#103 = CIRCLE ( 'NONE', #233, 6.500000000000000888 ) ;
#104 = COORDINATED_UNIVERSAL_TIME_OFFSET ( 1, 0, .AHEAD. ) ;
#105 = EDGE_LOOP ( 'NONE', ( #23, #251 ) ) ;
#106 = ADVANCED_FACE ( 'NONE', ( #137 ), #187, .T. ) ;
#107 = EDGE_CURVE ( 'NONE', #83, #198, #138, .T. ) ;
#108 = ORIENTED_EDGE ( 'NONE', *, *, #28, .F. ) ;
#109 = PRODUCT_RELATED_PRODUCT_CATEGORY ( 'detail', '', ( #50 ) ) ;
#110 = DIRECTION ( 'NONE',  ( -0.000000000000000000, -0.000000000000000000, -1.000000000000000000 ) ) ;
#111 = EDGE_LOOP ( 'NONE', ( #254, #114 ) ) ;
#112 = FACE_OUTER_BOUND ( 'NONE', #241, .T. ) ;
#113 = CIRCLE ( 'NONE', #135, 6.500000000000000888 ) ;
#114 = ORIENTED_EDGE ( 'NONE', *, *, #189, .F. ) ;
#115 = CARTESIAN_POINT ( 'NONE',  ( 0.000000000000000000, 0.000000000000000000, 507.0000000000000000 ) ) ;
#116 = DIRECTION ( 'NONE',  ( -1.000000000000000000, 0.000000000000000000, 0.000000000000000000 ) ) ;
#117 = AXIS2_PLACEMENT_3D ( 'NONE', #130, #4, #203 ) ;
#118 = DIRECTION ( 'NONE',  ( 0.000000000000000000, 0.000000000000000000, 1.000000000000000000 ) ) ;
#119 = VECTOR ( 'NONE', #7, 1000.000000000000000 ) ;
#120 = APPROVAL_STATUS ( 'not_yet_approved' ) ;
#121 = DIRECTION ( 'NONE',  ( -1.000000000000000000, 0.000000000000000000, 0.000000000000000000 ) ) ;
#122 = APPROVAL_PERSON_ORGANIZATION ( #161, #248, #143 ) ;
#123 = EDGE_CURVE ( 'NONE', #155, #99, #95, .T. ) ;
#124 = COORDINATED_UNIVERSAL_TIME_OFFSET ( 1, 0, .AHEAD. ) ;
#125 = CALENDAR_DATE ( 2022, 7, 7 ) ;
#126 = PERSON ( 'NEURÈENÝ', 'NEURÈENÝ', 'NEURÈENÝ', ('NEURÈENÝ'), ('NEURÈENÝ'), ('NEURÈENÝ') ) ;
#127 = ADVANCED_FACE ( 'NONE', ( #112 ), #47, .T. ) ;
#128 = VERTEX_POINT ( 'NONE', #93 ) ;
#129 = ORIENTED_EDGE ( 'NONE', *, *, #107, .T. ) ;
#130 = CARTESIAN_POINT ( 'NONE',  ( 0.000000000000000000, 0.000000000000000000, 7.000000000000000000 ) ) ;
#131 = AXIS2_PLACEMENT_3D ( 'NONE', #226, #206, #210 ) ;
#132 = DIRECTION ( 'NONE',  ( 1.000000000000000000, 0.000000000000000000, 0.000000000000000000 ) ) ;
#133 = PRODUCT_DEFINITION ( 'NEZNÁMÝ', '', #234, #151 ) ;
#134 = CARTESIAN_POINT ( 'NONE',  ( 11.00000000000000000, 1.347111479062088405E-15, 7.000000000000000000 ) ) ;
#135 = AXIS2_PLACEMENT_3D ( 'NONE', #33, #170, #184 ) ;
#136 = CC_DESIGN_PERSON_AND_ORGANIZATION_ASSIGNMENT ( #36, #80, ( #142 ) ) ;
#137 = FACE_OUTER_BOUND ( 'NONE', #105, .T. ) ;
#138 = LINE ( 'NONE', #209, #41 ) ;
#139 = DIRECTION ( 'NONE',  ( 1.000000000000000000, 0.000000000000000000, 0.000000000000000000 ) ) ;
#140 = PERSON_AND_ORGANIZATION ( #126, #205 ) ;
#141 = CARTESIAN_POINT ( 'NONE',  ( -11.00000000000000000, 0.000000000000000000, 7.000000000000000000 ) ) ;
#142 = SECURITY_CLASSIFICATION ( '', '', #212 ) ;
#143 = APPROVAL_ROLE ( '' ) ;
#144 = CALENDAR_DATE ( 2022, 7, 7 ) ;
#145 = VECTOR ( 'NONE', #10, 1000.000000000000000 ) ;
#146 =( GEOMETRIC_REPRESENTATION_CONTEXT ( 3 ) GLOBAL_UNCERTAINTY_ASSIGNED_CONTEXT ( ( #55 ) ) GLOBAL_UNIT_ASSIGNED_CONTEXT ( ( #73, #31, #207 ) ) REPRESENTATION_CONTEXT ( 'NONE', 'WORKASPACE' ) );
#147 = ORIENTED_EDGE ( 'NONE', *, *, #249, .T. ) ;
#148 = DIRECTION ( 'NONE',  ( 1.000000000000000000, 0.000000000000000000, 0.000000000000000000 ) ) ;
#149 = ADVANCED_FACE ( 'NONE', ( #72, #25 ), #29, .T. ) ;
#150 = CARTESIAN_POINT ( 'NONE',  ( -6.500000000000000888, 0.000000000000000000, 507.0000000000000000 ) ) ;
#151 = DESIGN_CONTEXT ( 'detailed design', #48, 'design' ) ;
#152 = CARTESIAN_POINT ( 'NONE',  ( -11.00000000000000000, 0.000000000000000000, 7.000000000000000000 ) ) ;
#153 = DIRECTION ( 'NONE',  ( 1.000000000000000000, 0.000000000000000000, 0.000000000000000000 ) ) ;
#154 = MANIFOLD_SOLID_BREP ( 'Pøidat vysunutím3', #217 ) ;
#155 = VERTEX_POINT ( 'NONE', #134 ) ;
#156 = CC_DESIGN_DATE_AND_TIME_ASSIGNMENT ( #230, #20, ( #142 ) ) ;
#157 = APPROVAL_STATUS ( 'not_yet_approved' ) ;
#158 = DIRECTION ( 'NONE',  ( -0.000000000000000000, -0.000000000000000000, -1.000000000000000000 ) ) ;
#159 = COORDINATED_UNIVERSAL_TIME_OFFSET ( 1, 0, .AHEAD. ) ;
#160 = APPROVAL_PERSON_ORGANIZATION ( #78, #162, #66 ) ;
#161 = PERSON_AND_ORGANIZATION ( #126, #205 ) ;
#162 = APPROVAL ( #120, 'NEURÈENÝ' ) ;
#163 = VECTOR ( 'NONE', #18, 1000.000000000000000 ) ;
#164 = LOCAL_TIME ( 19, 16, 12.00000000000000000, #195 ) ;
#165 = ORIENTED_EDGE ( 'NONE', *, *, #16, .T. ) ;
#166 = ORIENTED_EDGE ( 'NONE', *, *, #44, .T. ) ;
#167 = DIRECTION ( 'NONE',  ( 1.000000000000000000, 0.000000000000000000, -0.000000000000000000 ) ) ;
#168 = CIRCLE ( 'NONE', #224, 6.500000000000000888 ) ;
#169 = VERTEX_POINT ( 'NONE', #183 ) ;
#170 = DIRECTION ( 'NONE',  ( 0.000000000000000000, 0.000000000000000000, 1.000000000000000000 ) ) ;
#171 = AXIS2_PLACEMENT_3D ( 'NONE', #115, #225, #116 ) ;
#172 = CARTESIAN_POINT ( 'NONE',  ( 11.00000000000000000, 1.347111479062088405E-15, 7.000000000000000000 ) ) ;
#173 = EDGE_CURVE ( 'NONE', #169, #128, #204, .T. ) ;
#174 = DIRECTION ( 'NONE',  ( 1.000000000000000000, 0.000000000000000000, 0.000000000000000000 ) ) ;
#175 = PERSON_AND_ORGANIZATION ( #126, #205 ) ;
#176 = ORIENTED_EDGE ( 'NONE', *, *, #62, .T. ) ;
#177 = CALENDAR_DATE ( 2022, 7, 7 ) ;
#178 = DATE_AND_TIME ( #192, #63 ) ;
#179 = ORIENTED_EDGE ( 'NONE', *, *, #249, .F. ) ;
#180 = ORIENTED_EDGE ( 'NONE', *, *, #16, .F. ) ;
#181 = MECHANICAL_CONTEXT ( 'NONE', #42, 'mechanical' ) ;
#182 = ORIENTED_EDGE ( 'NONE', *, *, #173, .F. ) ;
#183 = CARTESIAN_POINT ( 'NONE',  ( -6.500000000000000888, 0.000000000000000000, 507.0000000000000000 ) ) ;
#184 = DIRECTION ( 'NONE',  ( 1.000000000000000000, 0.000000000000000000, 0.000000000000000000 ) ) ;
#185 = ORIENTED_EDGE ( 'NONE', *, *, #123, .F. ) ;
#186 = DIRECTION ( 'NONE',  ( 0.000000000000000000, 0.000000000000000000, 1.000000000000000000 ) ) ;
#187 = PLANE ( 'NONE',  #200 ) ;
#188 = DIRECTION ( 'NONE',  ( -0.000000000000000000, -0.000000000000000000, -1.000000000000000000 ) ) ;
#189 = EDGE_CURVE ( 'NONE', #198, #128, #6, .T. ) ;
#190 = CIRCLE ( 'NONE', #60, 11.00000000000000000 ) ;
#191 = DIRECTION ( 'NONE',  ( 0.000000000000000000, 0.000000000000000000, 1.000000000000000000 ) ) ;
#192 = CALENDAR_DATE ( 2022, 7, 7 ) ;
#193 = CC_DESIGN_APPROVAL ( #239, ( #234 ) ) ;
#194 = LINE ( 'NONE', #152, #163 ) ;
#195 = COORDINATED_UNIVERSAL_TIME_OFFSET ( 1, 0, .AHEAD. ) ;
#196 = EDGE_CURVE ( 'NONE', #128, #198, #103, .T. ) ;
#197 = CC_DESIGN_PERSON_AND_ORGANIZATION_ASSIGNMENT ( #38, #61, ( #234 ) ) ;
#198 = VERTEX_POINT ( 'NONE', #221 ) ;
#199 = CARTESIAN_POINT ( 'NONE',  ( 0.000000000000000000, 0.000000000000000000, 0.000000000000000000 ) ) ;
#200 = AXIS2_PLACEMENT_3D ( 'NONE', #11, #243, #53 ) ;
#201 = CC_DESIGN_PERSON_AND_ORGANIZATION_ASSIGNMENT ( #246, #253, ( #50 ) ) ;
#202 = CYLINDRICAL_SURFACE ( 'NONE', #81, 11.00000000000000000 ) ;
#203 = DIRECTION ( 'NONE',  ( 1.000000000000000000, 0.000000000000000000, 0.000000000000000000 ) ) ;
#204 = LINE ( 'NONE', #150, #145 ) ;
#205 = ORGANIZATION ( 'NEURÈENÝ', 'NEURÈENÝ', '' ) ;
#206 = DIRECTION ( 'NONE',  ( 0.000000000000000000, 0.000000000000000000, 1.000000000000000000 ) ) ;
#207 =( NAMED_UNIT ( * ) SI_UNIT ( $, .STERADIAN. ) SOLID_ANGLE_UNIT ( ) );
#208 = ORIENTED_EDGE ( 'NONE', *, *, #5, .F. ) ;
#209 = CARTESIAN_POINT ( 'NONE',  ( 6.500000000000000888, 7.960204194457796463E-16, 507.0000000000000000 ) ) ;
#210 = DIRECTION ( 'NONE',  ( 1.000000000000000000, 0.000000000000000000, 0.000000000000000000 ) ) ;
#211 = ADVANCED_BREP_SHAPE_REPRESENTATION ( 'fe77', ( #154, #68 ), #146 ) ;
#212 = SECURITY_CLASSIFICATION_LEVEL ( 'unclassified' ) ;
#213 = PLANE ( 'NONE',  #30 ) ;
#214 = APPROVAL_STATUS ( 'not_yet_approved' ) ;
#215 = SHAPE_DEFINITION_REPRESENTATION ( #69, #211 ) ;
#216 = PERSON_AND_ORGANIZATION_ROLE ( 'creator' ) ;
#217 = CLOSED_SHELL ( 'NONE', ( #35, #127, #245, #149, #8, #56, #106 ) ) ;
#218 = DIRECTION ( 'NONE',  ( -1.000000000000000000, 0.000000000000000000, 0.000000000000000000 ) ) ;
#219 = FACE_OUTER_BOUND ( 'NONE', #65, .T. ) ;
#220 = CARTESIAN_POINT ( 'NONE',  ( 0.000000000000000000, 0.000000000000000000, 0.000000000000000000 ) ) ;
#221 = CARTESIAN_POINT ( 'NONE',  ( 6.500000000000000888, 7.960204194457796463E-16, 7.000000000000000000 ) ) ;
#222 = CARTESIAN_POINT ( 'NONE',  ( -11.00000000000000000, 0.000000000000000000, 0.000000000000000000 ) ) ;
#223 = CC_DESIGN_PERSON_AND_ORGANIZATION_ASSIGNMENT ( #102, #250, ( #234 ) ) ;
#224 = AXIS2_PLACEMENT_3D ( 'NONE', #247, #191, #174 ) ;
#225 = DIRECTION ( 'NONE',  ( -0.000000000000000000, -0.000000000000000000, -1.000000000000000000 ) ) ;
#226 = CARTESIAN_POINT ( 'NONE',  ( 0.000000000000000000, 0.000000000000000000, 7.000000000000000000 ) ) ;
#227 = APPROVAL_ROLE ( '' ) ;
#228 = ORIENTED_EDGE ( 'NONE', *, *, #107, .F. ) ;
#229 = AXIS2_PLACEMENT_3D ( 'NONE', #57, #34, #139 ) ;
#230 = DATE_AND_TIME ( #144, #86 ) ;
#231 = CALENDAR_DATE ( 2022, 7, 7 ) ;
#232 = DATE_AND_TIME ( #177, #27 ) ;
#233 = AXIS2_PLACEMENT_3D ( 'NONE', #242, #26, #148 ) ;
#234 = PRODUCT_DEFINITION_FORMATION_WITH_SPECIFIED_SOURCE ( 'LIBOVOLNÝ', '', #50, .NOT_KNOWN. ) ;
#235 = CC_DESIGN_PERSON_AND_ORGANIZATION_ASSIGNMENT ( #140, #216, ( #133 ) ) ;
#236 = LOCAL_TIME ( 19, 16, 12.00000000000000000, #124 ) ;
#237 = CARTESIAN_POINT ( 'NONE',  ( 0.000000000000000000, 0.000000000000000000, 7.000000000000000000 ) ) ;
#238 = DIRECTION ( 'NONE',  ( 0.000000000000000000, 0.000000000000000000, 1.000000000000000000 ) ) ;
#239 = APPROVAL ( #157, 'NEURÈENÝ' ) ;
#240 = DIRECTION ( 'NONE',  ( 1.000000000000000000, 0.000000000000000000, 0.000000000000000000 ) ) ;
#241 = EDGE_LOOP ( 'NONE', ( #208, #244, #165, #59 ) ) ;
#242 = CARTESIAN_POINT ( 'NONE',  ( 0.000000000000000000, 0.000000000000000000, 7.000000000000000000 ) ) ;
#243 = DIRECTION ( 'NONE',  ( 0.000000000000000000, 0.000000000000000000, 1.000000000000000000 ) ) ;
#244 = ORIENTED_EDGE ( 'NONE', *, *, #123, .T. ) ;
#245 = ADVANCED_FACE ( 'NONE', ( #219 ), #202, .T. ) ;
#246 = PERSON_AND_ORGANIZATION ( #126, #205 ) ;
#247 = CARTESIAN_POINT ( 'NONE',  ( 0.000000000000000000, 0.000000000000000000, 507.0000000000000000 ) ) ;
#248 = APPROVAL ( #214, 'NEURÈENÝ' ) ;
#249 = EDGE_CURVE ( 'NONE', #85, #99, #190, .T. ) ;
#250 = PERSON_AND_ORGANIZATION_ROLE ( 'creator' ) ;
#251 = ORIENTED_EDGE ( 'NONE', *, *, #12, .T. ) ;
#252 = CIRCLE ( 'NONE', #229, 11.00000000000000000 ) ;
#253 = PERSON_AND_ORGANIZATION_ROLE ( 'design_owner' ) ;
#254 = ORIENTED_EDGE ( 'NONE', *, *, #196, .F. ) ;
#255 = COORDINATED_UNIVERSAL_TIME_OFFSET ( 1, 0, .AHEAD. ) ;
ENDSEC;
END-ISO-10303-21;
