ISO-10303-21;
HEADER;
FILE_DESCRIPTION (( 'STEP AP203' ),
    '1' );
FILE_NAME ('2940.STEP',
    '2022-07-07T18:02:03',
    ( '' ),
    ( '' ),
    'SwSTEP 2.0',
    'SolidWorks 2019',
    '' );
FILE_SCHEMA (( 'CONFIG_CONTROL_DESIGN' ));
ENDSEC;

DATA;
#1 = EDGE_LOOP ( 'NONE', ( #166, #164, #43, #186 ) ) ;
#2 = ORIENTED_EDGE ( 'NONE', *, *, #106, .T. ) ;
#3 = ORIENTED_EDGE ( 'NONE', *, *, #112, .F. ) ;
#4 = CIRCLE ( 'NONE', #189, 2.000000000000000000 ) ;
#5 = APPROVAL_PERSON_ORGANIZATION ( #117, #104, #213 ) ;
#6 = EDGE_CURVE ( 'NONE', #78, #41, #13, .T. ) ;
#7 = DIRECTION ( 'NONE',  ( 0.000000000000000000, 0.000000000000000000, 1.000000000000000000 ) ) ;
#8 = CC_DESIGN_APPROVAL ( #104, ( #139 ) ) ;
#9 = CARTESIAN_POINT ( 'NONE',  ( 2.000000000000000000, 2.449293598294706414E-16, 2.000000000000000000 ) ) ;
#10 = PRODUCT ( '2940', '2940', '', ( #102 ) ) ;
#11 = DIRECTION ( 'NONE',  ( -0.000000000000000000, -0.000000000000000000, -1.000000000000000000 ) ) ;
#12 = PERSON_AND_ORGANIZATION ( #51, #136 ) ;
#13 = LINE ( 'NONE', #173, #55 ) ;
#14 = AXIS2_PLACEMENT_3D ( 'NONE', #66, #48, #91 ) ;
#15 = PERSON_AND_ORGANIZATION ( #51, #136 ) ;
#16 = PERSON_AND_ORGANIZATION_ROLE ( 'design_supplier' ) ;
#17 = CARTESIAN_POINT ( 'NONE',  ( 0.000000000000000000, 0.000000000000000000, 2.000000000000000000 ) ) ;
#18 = EDGE_LOOP ( 'NONE', ( #204, #76, #224, #101 ) ) ;
#19 = APPLICATION_PROTOCOL_DEFINITION ( 'international standard', 'config_control_design', 1994, #191 ) ;
#20 = VERTEX_POINT ( 'NONE', #111 ) ;
#21 = LOCAL_TIME ( 20, 2, 3.000000000000000000, #197 ) ;
#22 = DIRECTION ( 'NONE',  ( 0.000000000000000000, 0.000000000000000000, 1.000000000000000000 ) ) ;
#23 = EDGE_LOOP ( 'NONE', ( #25, #59 ) ) ;
#24 = DIRECTION ( 'NONE',  ( -1.000000000000000000, 0.000000000000000000, 0.000000000000000000 ) ) ;
#25 = ORIENTED_EDGE ( 'NONE', *, *, #171, .T. ) ;
#26 = CIRCLE ( 'NONE', #92, 1.000000000000000000 ) ;
#27 = ADVANCED_FACE ( 'NONE', ( #175 ), #63, .T. ) ;
#28 = FACE_OUTER_BOUND ( 'NONE', #1, .T. ) ;
#29 = LINE ( 'NONE', #129, #138 ) ;
#30 = CC_DESIGN_DATE_AND_TIME_ASSIGNMENT ( #253, #49, ( #139 ) ) ;
#31 = COORDINATED_UNIVERSAL_TIME_OFFSET ( 1, 0, .AHEAD. ) ;
#32 = CYLINDRICAL_SURFACE ( 'NONE', #14, 2.000000000000000000 ) ;
#33 = COORDINATED_UNIVERSAL_TIME_OFFSET ( 1, 0, .AHEAD. ) ;
#34 = PLANE ( 'NONE',  #157 ) ;
#35 = FACE_OUTER_BOUND ( 'NONE', #80, .T. ) ;
#36 = DIRECTION ( 'NONE',  ( -0.000000000000000000, -0.000000000000000000, -1.000000000000000000 ) ) ;
#37 = CC_DESIGN_DATE_AND_TIME_ASSIGNMENT ( #230, #177, ( #74 ) ) ;
#38 = VECTOR ( 'NONE', #219, 1000.000000000000000 ) ;
#39 = CC_DESIGN_SECURITY_CLASSIFICATION ( #139, ( #127 ) ) ;
#40 = FACE_OUTER_BOUND ( 'NONE', #23, .T. ) ;
#41 = VERTEX_POINT ( 'NONE', #134 ) ;
#42 = CARTESIAN_POINT ( 'NONE',  ( 0.000000000000000000, 0.000000000000000000, 0.000000000000000000 ) ) ;
#43 = ORIENTED_EDGE ( 'NONE', *, *, #112, .T. ) ;
#44 = CC_DESIGN_PERSON_AND_ORGANIZATION_ASSIGNMENT ( #123, #220, ( #10 ) ) ;
#45 = CYLINDRICAL_SURFACE ( 'NONE', #183, 1.000000000000000000 ) ;
#46 = LOCAL_TIME ( 20, 2, 3.000000000000000000, #31 ) ;
#47 = PERSON_AND_ORGANIZATION ( #51, #136 ) ;
#48 = DIRECTION ( 'NONE',  ( -0.000000000000000000, -0.000000000000000000, -1.000000000000000000 ) ) ;
#49 = DATE_TIME_ROLE ( 'classification_date' ) ;
#50 = CARTESIAN_POINT ( 'NONE',  ( 1.000000000000000000, 1.224646799147353207E-16, 162.0000000000000000 ) ) ;
#51 = PERSON ( 'NEURÈENÝ', 'NEURÈENÝ', 'NEURÈENÝ', ('NEURÈENÝ'), ('NEURÈENÝ'), ('NEURÈENÝ') ) ;
#52 = CALENDAR_DATE ( 2022, 7, 7 ) ;
#53 =( GEOMETRIC_REPRESENTATION_CONTEXT ( 3 ) GLOBAL_UNCERTAINTY_ASSIGNED_CONTEXT ( ( #81 ) ) GLOBAL_UNIT_ASSIGNED_CONTEXT ( ( #161, #244, #61 ) ) REPRESENTATION_CONTEXT ( 'NONE', 'WORKASPACE' ) );
#54 = APPROVAL_STATUS ( 'not_yet_approved' ) ;
#55 = VECTOR ( 'NONE', #148, 1000.000000000000000 ) ;
#56 = AXIS2_PLACEMENT_3D ( 'NONE', #155, #7, #114 ) ;
#57 = CARTESIAN_POINT ( 'NONE',  ( 0.000000000000000000, 0.000000000000000000, 162.0000000000000000 ) ) ;
#58 = EDGE_LOOP ( 'NONE', ( #99, #3 ) ) ;
#59 = ORIENTED_EDGE ( 'NONE', *, *, #199, .T. ) ;
#60 = DIRECTION ( 'NONE',  ( 1.000000000000000000, 0.000000000000000000, 0.000000000000000000 ) ) ;
#61 =( NAMED_UNIT ( * ) SI_UNIT ( $, .STERADIAN. ) SOLID_ANGLE_UNIT ( ) );
#62 = EDGE_LOOP ( 'NONE', ( #64, #125 ) ) ;
#63 = CYLINDRICAL_SURFACE ( 'NONE', #187, 1.000000000000000000 ) ;
#64 = ORIENTED_EDGE ( 'NONE', *, *, #153, .T. ) ;
#65 = DIRECTION ( 'NONE',  ( 0.000000000000000000, 0.000000000000000000, 1.000000000000000000 ) ) ;
#66 = CARTESIAN_POINT ( 'NONE',  ( 0.000000000000000000, 0.000000000000000000, 2.000000000000000000 ) ) ;
#67 = CIRCLE ( 'NONE', #143, 2.000000000000000000 ) ;
#68 = EDGE_CURVE ( 'NONE', #20, #142, #233, .T. ) ;
#69 = PERSON_AND_ORGANIZATION ( #51, #136 ) ;
#70 = FACE_OUTER_BOUND ( 'NONE', #18, .T. ) ;
#71 = APPROVAL_DATE_TIME ( #73, #104 ) ;
#72 = APPROVAL_STATUS ( 'not_yet_approved' ) ;
#73 = DATE_AND_TIME ( #52, #46 ) ;
#74 = PRODUCT_DEFINITION ( 'NEZNÁMÝ', '', #127, #243 ) ;
#75 = CYLINDRICAL_SURFACE ( 'NONE', #119, 2.000000000000000000 ) ;
#76 = ORIENTED_EDGE ( 'NONE', *, *, #171, .F. ) ;
#77 = PLANE ( 'NONE',  #83 ) ;
#78 = VERTEX_POINT ( 'NONE', #231 ) ;
#79 = CARTESIAN_POINT ( 'NONE',  ( 0.000000000000000000, 0.000000000000000000, 2.000000000000000000 ) ) ;
#80 = EDGE_LOOP ( 'NONE', ( #121, #240, #87, #201 ) ) ;
#81 = UNCERTAINTY_MEASURE_WITH_UNIT (LENGTH_MEASURE( 1.000000000000000082E-05 ), #161, 'distance_accuracy_value', 'NONE');
#82 = DIRECTION ( 'NONE',  ( 0.000000000000000000, 0.000000000000000000, 1.000000000000000000 ) ) ;
#83 = AXIS2_PLACEMENT_3D ( 'NONE', #221, #184, #165 ) ;
#84 = ORIENTED_EDGE ( 'NONE', *, *, #211, .F. ) ;
#85 = ADVANCED_FACE ( 'NONE', ( #70 ), #45, .T. ) ;
#86 = AXIS2_PLACEMENT_3D ( 'NONE', #17, #82, #200 ) ;
#87 = ORIENTED_EDGE ( 'NONE', *, *, #6, .T. ) ;
#88 = DIRECTION ( 'NONE',  ( 1.000000000000000000, 0.000000000000000000, 0.000000000000000000 ) ) ;
#89 = DIRECTION ( 'NONE',  ( 0.000000000000000000, 0.000000000000000000, 1.000000000000000000 ) ) ;
#90 = PERSON_AND_ORGANIZATION_ROLE ( 'classification_officer' ) ;
#91 = DIRECTION ( 'NONE',  ( -1.000000000000000000, 0.000000000000000000, 0.000000000000000000 ) ) ;
#92 = AXIS2_PLACEMENT_3D ( 'NONE', #194, #212, #252 ) ;
#93 = CALENDAR_DATE ( 2022, 7, 7 ) ;
#94 = SECURITY_CLASSIFICATION_LEVEL ( 'unclassified' ) ;
#95 = CARTESIAN_POINT ( 'NONE',  ( 1.000000000000000000, 1.224646799147353207E-16, 2.000000000000000000 ) ) ;
#96 = CC_DESIGN_PERSON_AND_ORGANIZATION_ASSIGNMENT ( #15, #90, ( #139 ) ) ;
#97 = VERTEX_POINT ( 'NONE', #146 ) ;
#98 = AXIS2_PLACEMENT_3D ( 'NONE', #241, #239, #60 ) ;
#99 = ORIENTED_EDGE ( 'NONE', *, *, #254, .F. ) ;
#100 = CARTESIAN_POINT ( 'NONE',  ( 0.000000000000000000, 0.000000000000000000, 0.000000000000000000 ) ) ;
#101 = ORIENTED_EDGE ( 'NONE', *, *, #132, .T. ) ;
#102 = MECHANICAL_CONTEXT ( 'NONE', #191, 'mechanical' ) ;
#103 = EDGE_LOOP ( 'NONE', ( #222, #2, #162, #124 ) ) ;
#104 = APPROVAL ( #72, 'NEURÈENÝ' ) ;
#105 = CIRCLE ( 'NONE', #108, 2.000000000000000000 ) ;
#106 = EDGE_CURVE ( 'NONE', #182, #245, #29, .T. ) ;
#107 = CARTESIAN_POINT ( 'NONE',  ( 0.000000000000000000, 0.000000000000000000, 162.0000000000000000 ) ) ;
#108 = AXIS2_PLACEMENT_3D ( 'NONE', #109, #65, #190 ) ;
#109 = CARTESIAN_POINT ( 'NONE',  ( 0.000000000000000000, 0.000000000000000000, 2.000000000000000000 ) ) ;
#110 = CC_DESIGN_PERSON_AND_ORGANIZATION_ASSIGNMENT ( #12, #16, ( #127 ) ) ;
#111 = CARTESIAN_POINT ( 'NONE',  ( -1.000000000000000000, 0.000000000000000000, 162.0000000000000000 ) ) ;
#112 = EDGE_CURVE ( 'NONE', #97, #41, #67, .T. ) ;
#113 = PERSON_AND_ORGANIZATION_ROLE ( 'creator' ) ;
#114 = DIRECTION ( 'NONE',  ( 1.000000000000000000, 0.000000000000000000, 0.000000000000000000 ) ) ;
#115 = PRODUCT_RELATED_PRODUCT_CATEGORY ( 'detail', '', ( #10 ) ) ;
#116 = LOCAL_TIME ( 20, 2, 3.000000000000000000, #137 ) ;
#117 = PERSON_AND_ORGANIZATION ( #51, #136 ) ;
#118 = CALENDAR_DATE ( 2022, 7, 7 ) ;
#119 = AXIS2_PLACEMENT_3D ( 'NONE', #79, #36, #24 ) ;
#120 = LINE ( 'NONE', #126, #38 ) ;
#121 = ORIENTED_EDGE ( 'NONE', *, *, #223, .F. ) ;
#122 = AXIS2_PLACEMENT_3D ( 'NONE', #215, #128, #250 ) ;
#123 = PERSON_AND_ORGANIZATION ( #51, #136 ) ;
#124 = ORIENTED_EDGE ( 'NONE', *, *, #68, .F. ) ;
#125 = ORIENTED_EDGE ( 'NONE', *, *, #160, .T. ) ;
#126 = CARTESIAN_POINT ( 'NONE',  ( 2.000000000000000000, 2.449293598294706414E-16, 2.000000000000000000 ) ) ;
#127 = PRODUCT_DEFINITION_FORMATION_WITH_SPECIFIED_SOURCE ( 'LIBOVOLNÝ', '', #10, .NOT_KNOWN. ) ;
#128 = DIRECTION ( 'NONE',  ( 0.000000000000000000, 0.000000000000000000, 1.000000000000000000 ) ) ;
#129 = CARTESIAN_POINT ( 'NONE',  ( 1.000000000000000000, 1.224646799147353207E-16, 162.0000000000000000 ) ) ;
#130 = CIRCLE ( 'NONE', #86, 1.000000000000000000 ) ;
#131 = DIRECTION ( 'NONE',  ( 0.000000000000000000, 0.000000000000000000, 1.000000000000000000 ) ) ;
#132 = EDGE_CURVE ( 'NONE', #142, #245, #218, .T. ) ;
#133 = APPROVAL_ROLE ( '' ) ;
#134 = CARTESIAN_POINT ( 'NONE',  ( -2.000000000000000000, 0.000000000000000000, 0.000000000000000000 ) ) ;
#135 = SHAPE_DEFINITION_REPRESENTATION ( #147, #196 ) ;
#136 = ORGANIZATION ( 'NEURÈENÝ', 'NEURÈENÝ', '' ) ;
#137 = COORDINATED_UNIVERSAL_TIME_OFFSET ( 1, 0, .AHEAD. ) ;
#138 = VECTOR ( 'NONE', #11, 1000.000000000000000 ) ;
#139 = SECURITY_CLASSIFICATION ( '', '', #94 ) ;
#140 = DIRECTION ( 'NONE',  ( 1.000000000000000000, 0.000000000000000000, -0.000000000000000000 ) ) ;
#141 = FACE_OUTER_BOUND ( 'NONE', #58, .T. ) ;
#142 = VERTEX_POINT ( 'NONE', #152 ) ;
#143 = AXIS2_PLACEMENT_3D ( 'NONE', #42, #89, #248 ) ;
#144 = EDGE_LOOP ( 'NONE', ( #228, #84 ) ) ;
#145 = APPROVAL ( #54, 'NEURÈENÝ' ) ;
#146 = CARTESIAN_POINT ( 'NONE',  ( 2.000000000000000000, 2.449293598294706414E-16, 0.000000000000000000 ) ) ;
#147 = PRODUCT_DEFINITION_SHAPE ( 'NONE', 'NONE',  #74 ) ;
#148 = DIRECTION ( 'NONE',  ( -0.000000000000000000, -0.000000000000000000, -1.000000000000000000 ) ) ;
#149 = FACE_OUTER_BOUND ( 'NONE', #62, .T. ) ;
#150 = PERSON_AND_ORGANIZATION_ROLE ( 'creator' ) ;
#151 = CC_DESIGN_APPROVAL ( #198, ( #74 ) ) ;
#152 = CARTESIAN_POINT ( 'NONE',  ( -1.000000000000000000, 0.000000000000000000, 2.000000000000000000 ) ) ;
#153 = EDGE_CURVE ( 'NONE', #78, #169, #105, .T. ) ;
#154 = APPROVAL_DATE_TIME ( #217, #198 ) ;
#155 = CARTESIAN_POINT ( 'NONE',  ( 0.000000000000000000, 0.000000000000000000, 2.000000000000000000 ) ) ;
#156 = APPROVAL_DATE_TIME ( #232, #145 ) ;
#157 = AXIS2_PLACEMENT_3D ( 'NONE', #57, #168, #140 ) ;
#158 = APPROVAL_STATUS ( 'not_yet_approved' ) ;
#159 = ADVANCED_FACE ( 'NONE', ( #28 ), #32, .T. ) ;
#160 = EDGE_CURVE ( 'NONE', #169, #78, #255, .T. ) ;
#161 =( LENGTH_UNIT ( ) NAMED_UNIT ( * ) SI_UNIT ( .MILLI., .METRE. ) );
#162 = ORIENTED_EDGE ( 'NONE', *, *, #211, .T. ) ;
#163 = DIRECTION ( 'NONE',  ( 0.000000000000000000, 0.000000000000000000, 1.000000000000000000 ) ) ;
#164 = ORIENTED_EDGE ( 'NONE', *, *, #223, .T. ) ;
#165 = DIRECTION ( 'NONE',  ( 1.000000000000000000, 0.000000000000000000, -0.000000000000000000 ) ) ;
#166 = ORIENTED_EDGE ( 'NONE', *, *, #160, .F. ) ;
#167 = VECTOR ( 'NONE', #192, 1000.000000000000000 ) ;
#168 = DIRECTION ( 'NONE',  ( 0.000000000000000000, 0.000000000000000000, 1.000000000000000000 ) ) ;
#169 = VERTEX_POINT ( 'NONE', #9 ) ;
#170 = CC_DESIGN_PERSON_AND_ORGANIZATION_ASSIGNMENT ( #69, #150, ( #74 ) ) ;
#171 = EDGE_CURVE ( 'NONE', #20, #182, #26, .T. ) ;
#172 = CC_DESIGN_APPROVAL ( #145, ( #127 ) ) ;
#173 = CARTESIAN_POINT ( 'NONE',  ( -2.000000000000000000, 0.000000000000000000, 2.000000000000000000 ) ) ;
#174 = FACE_BOUND ( 'NONE', #144, .T. ) ;
#175 = FACE_OUTER_BOUND ( 'NONE', #103, .T. ) ;
#176 = CLOSED_SHELL ( 'NONE', ( #27, #159, #225, #207, #247, #85, #214 ) ) ;
#177 = DATE_TIME_ROLE ( 'creation_date' ) ;
#178 = CARTESIAN_POINT ( 'NONE',  ( 0.000000000000000000, 0.000000000000000000, 162.0000000000000000 ) ) ;
#179 = PERSON_AND_ORGANIZATION ( #51, #136 ) ;
#180 = CALENDAR_DATE ( 2022, 7, 7 ) ;
#181 = DIRECTION ( 'NONE',  ( 1.000000000000000000, 0.000000000000000000, 0.000000000000000000 ) ) ;
#182 = VERTEX_POINT ( 'NONE', #50 ) ;
#183 = AXIS2_PLACEMENT_3D ( 'NONE', #178, #209, #249 ) ;
#184 = DIRECTION ( 'NONE',  ( 0.000000000000000000, 0.000000000000000000, 1.000000000000000000 ) ) ;
#185 = DIRECTION ( 'NONE',  ( 1.000000000000000000, 0.000000000000000000, -0.000000000000000000 ) ) ;
#186 = ORIENTED_EDGE ( 'NONE', *, *, #6, .F. ) ;
#187 = AXIS2_PLACEMENT_3D ( 'NONE', #227, #188, #210 ) ;
#188 = DIRECTION ( 'NONE',  ( -0.000000000000000000, -0.000000000000000000, -1.000000000000000000 ) ) ;
#189 = AXIS2_PLACEMENT_3D ( 'NONE', #100, #163, #181 ) ;
#190 = DIRECTION ( 'NONE',  ( 1.000000000000000000, 0.000000000000000000, 0.000000000000000000 ) ) ;
#191 = APPLICATION_CONTEXT ( 'configuration controlled 3d designs of mechanical parts and assemblies' ) ;
#192 = DIRECTION ( 'NONE',  ( -0.000000000000000000, -0.000000000000000000, -1.000000000000000000 ) ) ;
#193 = PERSON_AND_ORGANIZATION ( #51, #136 ) ;
#194 = CARTESIAN_POINT ( 'NONE',  ( 0.000000000000000000, 0.000000000000000000, 162.0000000000000000 ) ) ;
#195 = CALENDAR_DATE ( 2022, 7, 7 ) ;
#196 = ADVANCED_BREP_SHAPE_REPRESENTATION ( '2940', ( #238, #98 ), #53 ) ;
#197 = COORDINATED_UNIVERSAL_TIME_OFFSET ( 1, 0, .AHEAD. ) ;
#198 = APPROVAL ( #158, 'NEURÈENÝ' ) ;
#199 = EDGE_CURVE ( 'NONE', #182, #20, #242, .T. ) ;
#200 = DIRECTION ( 'NONE',  ( 1.000000000000000000, 0.000000000000000000, 0.000000000000000000 ) ) ;
#201 = ORIENTED_EDGE ( 'NONE', *, *, #254, .T. ) ;
#202 = AXIS2_PLACEMENT_3D ( 'NONE', #107, #131, #88 ) ;
#203 = APPLICATION_PROTOCOL_DEFINITION ( 'international standard', 'config_control_design', 1994, #236 ) ;
#204 = ORIENTED_EDGE ( 'NONE', *, *, #106, .F. ) ;
#205 = CC_DESIGN_PERSON_AND_ORGANIZATION_ASSIGNMENT ( #179, #113, ( #127 ) ) ;
#206 = PLANE ( 'NONE',  #229 ) ;
#207 = ADVANCED_FACE ( 'NONE', ( #174, #149 ), #77, .T. ) ;
#208 = LOCAL_TIME ( 20, 2, 3.000000000000000000, #33 ) ;
#209 = DIRECTION ( 'NONE',  ( -0.000000000000000000, -0.000000000000000000, -1.000000000000000000 ) ) ;
#210 = DIRECTION ( 'NONE',  ( -1.000000000000000000, 0.000000000000000000, 0.000000000000000000 ) ) ;
#211 = EDGE_CURVE ( 'NONE', #245, #142, #130, .T. ) ;
#212 = DIRECTION ( 'NONE',  ( 0.000000000000000000, 0.000000000000000000, 1.000000000000000000 ) ) ;
#213 = APPROVAL_ROLE ( '' ) ;
#214 = ADVANCED_FACE ( 'NONE', ( #40 ), #34, .T. ) ;
#215 = CARTESIAN_POINT ( 'NONE',  ( 0.000000000000000000, 0.000000000000000000, 2.000000000000000000 ) ) ;
#216 = LOCAL_TIME ( 20, 2, 3.000000000000000000, #251 ) ;
#217 = DATE_AND_TIME ( #180, #21 ) ;
#218 = CIRCLE ( 'NONE', #122, 1.000000000000000000 ) ;
#219 = DIRECTION ( 'NONE',  ( -0.000000000000000000, -0.000000000000000000, -1.000000000000000000 ) ) ;
#220 = PERSON_AND_ORGANIZATION_ROLE ( 'design_owner' ) ;
#221 = CARTESIAN_POINT ( 'NONE',  ( 0.000000000000000000, 0.000000000000000000, 2.000000000000000000 ) ) ;
#222 = ORIENTED_EDGE ( 'NONE', *, *, #199, .F. ) ;
#223 = EDGE_CURVE ( 'NONE', #169, #97, #120, .T. ) ;
#224 = ORIENTED_EDGE ( 'NONE', *, *, #68, .T. ) ;
#225 = ADVANCED_FACE ( 'NONE', ( #35 ), #75, .T. ) ;
#226 = CARTESIAN_POINT ( 'NONE',  ( -1.000000000000000000, 0.000000000000000000, 162.0000000000000000 ) ) ;
#227 = CARTESIAN_POINT ( 'NONE',  ( 0.000000000000000000, 0.000000000000000000, 162.0000000000000000 ) ) ;
#228 = ORIENTED_EDGE ( 'NONE', *, *, #132, .F. ) ;
#229 = AXIS2_PLACEMENT_3D ( 'NONE', #237, #22, #185 ) ;
#230 = DATE_AND_TIME ( #93, #208 ) ;
#231 = CARTESIAN_POINT ( 'NONE',  ( -2.000000000000000000, 0.000000000000000000, 2.000000000000000000 ) ) ;
#232 = DATE_AND_TIME ( #195, #116 ) ;
#233 = LINE ( 'NONE', #226, #167 ) ;
#234 = APPROVAL_PERSON_ORGANIZATION ( #193, #145, #133 ) ;
#235 = APPROVAL_ROLE ( '' ) ;
#236 = APPLICATION_CONTEXT ( 'configuration controlled 3d designs of mechanical parts and assemblies' ) ;
#237 = CARTESIAN_POINT ( 'NONE',  ( 0.000000000000000000, 0.000000000000000000, 0.000000000000000000 ) ) ;
#238 = MANIFOLD_SOLID_BREP ( 'Pøidat vysunutím3', #176 ) ;
#239 = DIRECTION ( 'NONE',  ( 0.000000000000000000, 0.000000000000000000, 1.000000000000000000 ) ) ;
#240 = ORIENTED_EDGE ( 'NONE', *, *, #153, .F. ) ;
#241 = CARTESIAN_POINT ( 'NONE',  ( 0.000000000000000000, 0.000000000000000000, 0.000000000000000000 ) ) ;
#242 = CIRCLE ( 'NONE', #202, 1.000000000000000000 ) ;
#243 = DESIGN_CONTEXT ( 'detailed design', #236, 'design' ) ;
#244 =( NAMED_UNIT ( * ) PLANE_ANGLE_UNIT ( ) SI_UNIT ( $, .RADIAN. ) );
#245 = VERTEX_POINT ( 'NONE', #95 ) ;
#246 = APPROVAL_PERSON_ORGANIZATION ( #47, #198, #235 ) ;
#247 = ADVANCED_FACE ( 'NONE', ( #141 ), #206, .F. ) ;
#248 = DIRECTION ( 'NONE',  ( 1.000000000000000000, 0.000000000000000000, 0.000000000000000000 ) ) ;
#249 = DIRECTION ( 'NONE',  ( -1.000000000000000000, 0.000000000000000000, 0.000000000000000000 ) ) ;
#250 = DIRECTION ( 'NONE',  ( 1.000000000000000000, 0.000000000000000000, 0.000000000000000000 ) ) ;
#251 = COORDINATED_UNIVERSAL_TIME_OFFSET ( 1, 0, .AHEAD. ) ;
#252 = DIRECTION ( 'NONE',  ( 1.000000000000000000, 0.000000000000000000, 0.000000000000000000 ) ) ;
#253 = DATE_AND_TIME ( #118, #216 ) ;
#254 = EDGE_CURVE ( 'NONE', #41, #97, #4, .T. ) ;
#255 = CIRCLE ( 'NONE', #56, 2.000000000000000000 ) ;
ENDSEC;
END-ISO-10303-21;
