ISO-10303-21;
HEADER;
FILE_DESCRIPTION (( 'STEP AP203' ),
    '1' );
FILE_NAME ('1cb1.STEP',
    '2022-07-07T17:33:54',
    ( '' ),
    ( '' ),
    'SwSTEP 2.0',
    'SolidWorks 2019',
    '' );
FILE_SCHEMA (( 'CONFIG_CONTROL_DESIGN' ));
ENDSEC;

DATA;
#1 = AXIS2_PLACEMENT_3D ( 'NONE', #162, #142, #237 ) ;
#2 = AXIS2_PLACEMENT_3D ( 'NONE', #47, #125, #66 ) ;
#3 = VERTEX_POINT ( 'NONE', #249 ) ;
#4 = CARTESIAN_POINT ( 'NONE',  ( -3.750000000000000000, 0.000000000000000000, 505.0000000000000000 ) ) ;
#5 = CARTESIAN_POINT ( 'NONE',  ( 6.000000000000000888, 7.347880794884120722E-16, 0.000000000000000000 ) ) ;
#6 = EDGE_CURVE ( 'NONE', #156, #18, #215, .T. ) ;
#7 = CARTESIAN_POINT ( 'NONE',  ( -6.000000000000000888, 0.000000000000000000, 5.000000000000000000 ) ) ;
#8 = COORDINATED_UNIVERSAL_TIME_OFFSET ( 1, 0, .AHEAD. ) ;
#9 =( GEOMETRIC_REPRESENTATION_CONTEXT ( 3 ) GLOBAL_UNCERTAINTY_ASSIGNED_CONTEXT ( ( #46 ) ) GLOBAL_UNIT_ASSIGNED_CONTEXT ( ( #207, #188, #208 ) ) REPRESENTATION_CONTEXT ( 'NONE', 'WORKASPACE' ) );
#10 = PERSON_AND_ORGANIZATION_ROLE ( 'design_supplier' ) ;
#11 = CC_DESIGN_PERSON_AND_ORGANIZATION_ASSIGNMENT ( #149, #31, ( #43 ) ) ;
#12 = EDGE_LOOP ( 'NONE', ( #186, #159, #114, #53 ) ) ;
#13 = FACE_OUTER_BOUND ( 'NONE', #42, .T. ) ;
#14 = PERSON_AND_ORGANIZATION ( #58, #189 ) ;
#15 = DIRECTION ( 'NONE',  ( 0.000000000000000000, 0.000000000000000000, 1.000000000000000000 ) ) ;
#16 = AXIS2_PLACEMENT_3D ( 'NONE', #160, #106, #185 ) ;
#17 = CC_DESIGN_SECURITY_CLASSIFICATION ( #253, ( #43 ) ) ;
#18 = VERTEX_POINT ( 'NONE', #214 ) ;
#19 = EDGE_CURVE ( 'NONE', #184, #168, #165, .T. ) ;
#20 = DIRECTION ( 'NONE',  ( 1.000000000000000000, 0.000000000000000000, 0.000000000000000000 ) ) ;
#21 = CC_DESIGN_APPROVAL ( #244, ( #39 ) ) ;
#22 = CC_DESIGN_DATE_AND_TIME_ASSIGNMENT ( #172, #246, ( #253 ) ) ;
#23 = DIRECTION ( 'NONE',  ( 0.000000000000000000, 0.000000000000000000, 1.000000000000000000 ) ) ;
#24 = FACE_OUTER_BOUND ( 'NONE', #103, .T. ) ;
#25 = ADVANCED_FACE ( 'NONE', ( #75, #38 ), #201, .T. ) ;
#26 = LINE ( 'NONE', #104, #126 ) ;
#27 = ADVANCED_FACE ( 'NONE', ( #13 ), #178, .F. ) ;
#28 = CARTESIAN_POINT ( 'NONE',  ( 0.000000000000000000, 0.000000000000000000, 5.000000000000000000 ) ) ;
#29 = APPLICATION_CONTEXT ( 'configuration controlled 3d designs of mechanical parts and assemblies' ) ;
#30 = APPROVAL_ROLE ( '' ) ;
#31 = PERSON_AND_ORGANIZATION_ROLE ( 'creator' ) ;
#32 = CC_DESIGN_APPROVAL ( #60, ( #253 ) ) ;
#33 = DIRECTION ( 'NONE',  ( 1.000000000000000000, 0.000000000000000000, 0.000000000000000000 ) ) ;
#34 = DIRECTION ( 'NONE',  ( 1.000000000000000000, 0.000000000000000000, -0.000000000000000000 ) ) ;
#35 = ORIENTED_EDGE ( 'NONE', *, *, #100, .F. ) ;
#36 = PERSON_AND_ORGANIZATION_ROLE ( 'creator' ) ;
#37 = ORIENTED_EDGE ( 'NONE', *, *, #179, .T. ) ;
#38 = FACE_OUTER_BOUND ( 'NONE', #132, .T. ) ;
#39 = PRODUCT_DEFINITION ( 'NEZNÁMÝ', '', #43, #164 ) ;
#40 = EDGE_LOOP ( 'NONE', ( #65, #90, #116, #137 ) ) ;
#41 = DIRECTION ( 'NONE',  ( -0.000000000000000000, -0.000000000000000000, -1.000000000000000000 ) ) ;
#42 = EDGE_LOOP ( 'NONE', ( #93, #134 ) ) ;
#43 = PRODUCT_DEFINITION_FORMATION_WITH_SPECIFIED_SOURCE ( 'LIBOVOLNÝ', '', #180, .NOT_KNOWN. ) ;
#44 = CYLINDRICAL_SURFACE ( 'NONE', #235, 3.750000000000000000 ) ;
#45 = PRODUCT_DEFINITION_SHAPE ( 'NONE', 'NONE',  #39 ) ;
#46 = UNCERTAINTY_MEASURE_WITH_UNIT (LENGTH_MEASURE( 1.000000000000000082E-05 ), #207, 'distance_accuracy_value', 'NONE');
#47 = CARTESIAN_POINT ( 'NONE',  ( 0.000000000000000000, 0.000000000000000000, 5.000000000000000000 ) ) ;
#48 = ORIENTED_EDGE ( 'NONE', *, *, #112, .T. ) ;
#49 = APPLICATION_PROTOCOL_DEFINITION ( 'international standard', 'config_control_design', 1994, #29 ) ;
#50 = ORIENTED_EDGE ( 'NONE', *, *, #147, .F. ) ;
#51 = EDGE_LOOP ( 'NONE', ( #35, #170, #227, #37 ) ) ;
#52 = DIRECTION ( 'NONE',  ( 0.000000000000000000, 0.000000000000000000, 1.000000000000000000 ) ) ;
#53 = ORIENTED_EDGE ( 'NONE', *, *, #79, .T. ) ;
#54 = AXIS2_PLACEMENT_3D ( 'NONE', #74, #55, #92 ) ;
#55 = DIRECTION ( 'NONE',  ( -0.000000000000000000, -0.000000000000000000, -1.000000000000000000 ) ) ;
#56 = AXIS2_PLACEMENT_3D ( 'NONE', #28, #23, #122 ) ;
#57 = CC_DESIGN_PERSON_AND_ORGANIZATION_ASSIGNMENT ( #14, #196, ( #180 ) ) ;
#58 = PERSON ( 'NEURÈENÝ', 'NEURÈENÝ', 'NEURÈENÝ', ('NEURÈENÝ'), ('NEURÈENÝ'), ('NEURÈENÝ') ) ;
#59 = ORIENTED_EDGE ( 'NONE', *, *, #19, .T. ) ;
#60 = APPROVAL ( #71, 'NEURÈENÝ' ) ;
#61 = DIRECTION ( 'NONE',  ( 1.000000000000000000, 0.000000000000000000, 0.000000000000000000 ) ) ;
#62 = ORIENTED_EDGE ( 'NONE', *, *, #228, .F. ) ;
#63 = CARTESIAN_POINT ( 'NONE',  ( 0.000000000000000000, 0.000000000000000000, 0.000000000000000000 ) ) ;
#64 = CARTESIAN_POINT ( 'NONE',  ( -3.750000000000000000, 0.000000000000000000, 505.0000000000000000 ) ) ;
#65 = ORIENTED_EDGE ( 'NONE', *, *, #112, .F. ) ;
#66 = DIRECTION ( 'NONE',  ( 1.000000000000000000, 0.000000000000000000, 0.000000000000000000 ) ) ;
#67 = AXIS2_PLACEMENT_3D ( 'NONE', #70, #119, #212 ) ;
#68 = CALENDAR_DATE ( 2022, 7, 7 ) ;
#69 = COORDINATED_UNIVERSAL_TIME_OFFSET ( 1, 0, .AHEAD. ) ;
#70 = CARTESIAN_POINT ( 'NONE',  ( 0.000000000000000000, 0.000000000000000000, 5.000000000000000000 ) ) ;
#71 = APPROVAL_STATUS ( 'not_yet_approved' ) ;
#72 = CARTESIAN_POINT ( 'NONE',  ( 3.750000000000000000, 4.592425496802573972E-16, 505.0000000000000000 ) ) ;
#73 = PERSON_AND_ORGANIZATION ( #58, #189 ) ;
#74 = CARTESIAN_POINT ( 'NONE',  ( 0.000000000000000000, 0.000000000000000000, 5.000000000000000000 ) ) ;
#75 = FACE_BOUND ( 'NONE', #98, .T. ) ;
#76 = VECTOR ( 'NONE', #232, 1000.000000000000000 ) ;
#77 = AXIS2_PLACEMENT_3D ( 'NONE', #63, #241, #123 ) ;
#78 = ADVANCED_FACE ( 'NONE', ( #250 ), #175, .T. ) ;
#79 = EDGE_CURVE ( 'NONE', #217, #18, #239, .T. ) ;
#80 = DIRECTION ( 'NONE',  ( -0.000000000000000000, -0.000000000000000000, -1.000000000000000000 ) ) ;
#81 = CARTESIAN_POINT ( 'NONE',  ( 0.000000000000000000, 0.000000000000000000, 505.0000000000000000 ) ) ;
#82 = CC_DESIGN_DATE_AND_TIME_ASSIGNMENT ( #87, #166, ( #39 ) ) ;
#83 = AXIS2_PLACEMENT_3D ( 'NONE', #96, #15, #177 ) ;
#84 = DIRECTION ( 'NONE',  ( 0.000000000000000000, 0.000000000000000000, 1.000000000000000000 ) ) ;
#85 = ORIENTED_EDGE ( 'NONE', *, *, #100, .T. ) ;
#86 = PLANE ( 'NONE',  #1 ) ;
#87 = DATE_AND_TIME ( #108, #138 ) ;
#88 = CIRCLE ( 'NONE', #110, 6.000000000000000888 ) ;
#89 = SECURITY_CLASSIFICATION_LEVEL ( 'unclassified' ) ;
#90 = ORIENTED_EDGE ( 'NONE', *, *, #6, .T. ) ;
#91 = DATE_AND_TIME ( #193, #219 ) ;
#92 = DIRECTION ( 'NONE',  ( -1.000000000000000000, 0.000000000000000000, 0.000000000000000000 ) ) ;
#93 = ORIENTED_EDGE ( 'NONE', *, *, #179, .F. ) ;
#94 = CC_DESIGN_PERSON_AND_ORGANIZATION_ASSIGNMENT ( #73, #36, ( #39 ) ) ;
#95 = AXIS2_PLACEMENT_3D ( 'NONE', #206, #141, #102 ) ;
#96 = CARTESIAN_POINT ( 'NONE',  ( 0.000000000000000000, 0.000000000000000000, 0.000000000000000000 ) ) ;
#97 = CIRCLE ( 'NONE', #56, 3.750000000000000000 ) ;
#98 = EDGE_LOOP ( 'NONE', ( #254, #50 ) ) ;
#99 = FACE_OUTER_BOUND ( 'NONE', #40, .T. ) ;
#100 = EDGE_CURVE ( 'NONE', #168, #247, #155, .T. ) ;
#101 = FACE_OUTER_BOUND ( 'NONE', #51, .T. ) ;
#102 = DIRECTION ( 'NONE',  ( -1.000000000000000000, 0.000000000000000000, 0.000000000000000000 ) ) ;
#103 = EDGE_LOOP ( 'NONE', ( #242, #48 ) ) ;
#104 = CARTESIAN_POINT ( 'NONE',  ( -6.000000000000000888, 0.000000000000000000, 5.000000000000000000 ) ) ;
#105 = CC_DESIGN_APPROVAL ( #171, ( #43 ) ) ;
#106 = DIRECTION ( 'NONE',  ( -0.000000000000000000, -0.000000000000000000, -1.000000000000000000 ) ) ;
#107 = CC_DESIGN_PERSON_AND_ORGANIZATION_ASSIGNMENT ( #133, #10, ( #43 ) ) ;
#108 = CALENDAR_DATE ( 2022, 7, 7 ) ;
#109 = PERSON_AND_ORGANIZATION ( #58, #189 ) ;
#110 = AXIS2_PLACEMENT_3D ( 'NONE', #144, #84, #224 ) ;
#111 = COORDINATED_UNIVERSAL_TIME_OFFSET ( 1, 0, .AHEAD. ) ;
#112 = EDGE_CURVE ( 'NONE', #156, #151, #218, .T. ) ;
#113 = ORIENTED_EDGE ( 'NONE', *, *, #198, .T. ) ;
#114 = ORIENTED_EDGE ( 'NONE', *, *, #216, .T. ) ;
#115 = DATE_AND_TIME ( #68, #211 ) ;
#116 = ORIENTED_EDGE ( 'NONE', *, *, #147, .T. ) ;
#117 = PERSON_AND_ORGANIZATION ( #58, #189 ) ;
#118 = DIRECTION ( 'NONE',  ( 1.000000000000000000, 0.000000000000000000, 0.000000000000000000 ) ) ;
#119 = DIRECTION ( 'NONE',  ( 0.000000000000000000, 0.000000000000000000, 1.000000000000000000 ) ) ;
#120 = ADVANCED_FACE ( 'NONE', ( #99 ), #192, .T. ) ;
#121 = CIRCLE ( 'NONE', #77, 6.000000000000000888 ) ;
#122 = DIRECTION ( 'NONE',  ( 1.000000000000000000, 0.000000000000000000, 0.000000000000000000 ) ) ;
#123 = DIRECTION ( 'NONE',  ( 1.000000000000000000, 0.000000000000000000, 0.000000000000000000 ) ) ;
#124 = ADVANCED_FACE ( 'NONE', ( #101 ), #146, .T. ) ;
#125 = DIRECTION ( 'NONE',  ( 0.000000000000000000, 0.000000000000000000, 1.000000000000000000 ) ) ;
#126 = VECTOR ( 'NONE', #80, 1000.000000000000000 ) ;
#127 = ADVANCED_FACE ( 'NONE', ( #24 ), #86, .T. ) ;
#128 = CALENDAR_DATE ( 2022, 7, 7 ) ;
#129 = AXIS2_PLACEMENT_3D ( 'NONE', #173, #230, #118 ) ;
#130 = EDGE_CURVE ( 'NONE', #151, #156, #236, .T. ) ;
#131 = APPROVAL_STATUS ( 'not_yet_approved' ) ;
#132 = EDGE_LOOP ( 'NONE', ( #59, #194 ) ) ;
#133 = PERSON_AND_ORGANIZATION ( #58, #189 ) ;
#134 = ORIENTED_EDGE ( 'NONE', *, *, #198, .F. ) ;
#135 = COORDINATED_UNIVERSAL_TIME_OFFSET ( 1, 0, .AHEAD. ) ;
#136 = CARTESIAN_POINT ( 'NONE',  ( 6.000000000000000888, 7.347880794884120722E-16, 5.000000000000000000 ) ) ;
#137 = ORIENTED_EDGE ( 'NONE', *, *, #216, .F. ) ;
#138 = LOCAL_TIME ( 19, 33, 54.00000000000000000, #69 ) ;
#139 = ORIENTED_EDGE ( 'NONE', *, *, #176, .F. ) ;
#140 = ADVANCED_FACE ( 'NONE', ( #220 ), #44, .T. ) ;
#141 = DIRECTION ( 'NONE',  ( -0.000000000000000000, -0.000000000000000000, -1.000000000000000000 ) ) ;
#142 = DIRECTION ( 'NONE',  ( 0.000000000000000000, 0.000000000000000000, 1.000000000000000000 ) ) ;
#143 = LOCAL_TIME ( 19, 33, 54.00000000000000000, #8 ) ;
#144 = CARTESIAN_POINT ( 'NONE',  ( 0.000000000000000000, 0.000000000000000000, 0.000000000000000000 ) ) ;
#145 = MANIFOLD_SOLID_BREP ( 'Pøidat vysunutím3', #221 ) ;
#146 = CYLINDRICAL_SURFACE ( 'NONE', #16, 6.000000000000000888 ) ;
#147 = EDGE_CURVE ( 'NONE', #18, #217, #97, .T. ) ;
#148 = LOCAL_TIME ( 19, 33, 54.00000000000000000, #111 ) ;
#149 = PERSON_AND_ORGANIZATION ( #58, #189 ) ;
#150 = CARTESIAN_POINT ( 'NONE',  ( 0.000000000000000000, 0.000000000000000000, 0.000000000000000000 ) ) ;
#151 = VERTEX_POINT ( 'NONE', #4 ) ;
#152 = APPROVAL_ROLE ( '' ) ;
#153 = CARTESIAN_POINT ( 'NONE',  ( 0.000000000000000000, 0.000000000000000000, 5.000000000000000000 ) ) ;
#154 = APPROVAL_STATUS ( 'not_yet_approved' ) ;
#155 = LINE ( 'NONE', #136, #234 ) ;
#156 = VERTEX_POINT ( 'NONE', #183 ) ;
#157 = AXIS2_PLACEMENT_3D ( 'NONE', #81, #163, #61 ) ;
#158 = APPROVAL_PERSON_ORGANIZATION ( #231, #244, #30 ) ;
#159 = ORIENTED_EDGE ( 'NONE', *, *, #130, .F. ) ;
#160 = CARTESIAN_POINT ( 'NONE',  ( 0.000000000000000000, 0.000000000000000000, 5.000000000000000000 ) ) ;
#161 = CARTESIAN_POINT ( 'NONE',  ( 6.000000000000000888, 7.347880794884120722E-16, 5.000000000000000000 ) ) ;
#162 = CARTESIAN_POINT ( 'NONE',  ( 0.000000000000000000, 0.000000000000000000, 505.0000000000000000 ) ) ;
#163 = DIRECTION ( 'NONE',  ( 0.000000000000000000, 0.000000000000000000, 1.000000000000000000 ) ) ;
#164 = DESIGN_CONTEXT ( 'detailed design', #29, 'design' ) ;
#165 = CIRCLE ( 'NONE', #67, 6.000000000000000888 ) ;
#166 = DATE_TIME_ROLE ( 'creation_date' ) ;
#167 = CIRCLE ( 'NONE', #2, 6.000000000000000888 ) ;
#168 = VERTEX_POINT ( 'NONE', #161 ) ;
#169 = COORDINATED_UNIVERSAL_TIME_OFFSET ( 1, 0, .AHEAD. ) ;
#170 = ORIENTED_EDGE ( 'NONE', *, *, #19, .F. ) ;
#171 = APPROVAL ( #154, 'NEURÈENÝ' ) ;
#172 = DATE_AND_TIME ( #209, #143 ) ;
#173 = CARTESIAN_POINT ( 'NONE',  ( 0.000000000000000000, 0.000000000000000000, 5.000000000000000000 ) ) ;
#174 = APPLICATION_PROTOCOL_DEFINITION ( 'international standard', 'config_control_design', 1994, #202 ) ;
#175 = CYLINDRICAL_SURFACE ( 'NONE', #54, 6.000000000000000888 ) ;
#176 = EDGE_CURVE ( 'NONE', #184, #3, #26, .T. ) ;
#177 = DIRECTION ( 'NONE',  ( 1.000000000000000000, 0.000000000000000000, -0.000000000000000000 ) ) ;
#178 = PLANE ( 'NONE',  #83 ) ;
#179 = EDGE_CURVE ( 'NONE', #3, #247, #121, .T. ) ;
#180 = PRODUCT ( '1cb1', '1cb1', '', ( #226 ) ) ;
#181 = CARTESIAN_POINT ( 'NONE',  ( 0.000000000000000000, 0.000000000000000000, 505.0000000000000000 ) ) ;
#182 = CC_DESIGN_PERSON_AND_ORGANIZATION_ASSIGNMENT ( #252, #210, ( #253 ) ) ;
#183 = CARTESIAN_POINT ( 'NONE',  ( 3.750000000000000000, 4.592425496802573972E-16, 505.0000000000000000 ) ) ;
#184 = VERTEX_POINT ( 'NONE', #7 ) ;
#185 = DIRECTION ( 'NONE',  ( -1.000000000000000000, 0.000000000000000000, 0.000000000000000000 ) ) ;
#186 = ORIENTED_EDGE ( 'NONE', *, *, #6, .F. ) ;
#187 = AXIS2_PLACEMENT_3D ( 'NONE', #153, #197, #34 ) ;
#188 =( NAMED_UNIT ( * ) PLANE_ANGLE_UNIT ( ) SI_UNIT ( $, .RADIAN. ) );
#189 = ORGANIZATION ( 'NEURÈENÝ', 'NEURÈENÝ', '' ) ;
#190 = APPROVAL_DATE_TIME ( #91, #171 ) ;
#191 = APPROVAL_DATE_TIME ( #213, #244 ) ;
#192 = CYLINDRICAL_SURFACE ( 'NONE', #95, 3.750000000000000000 ) ;
#193 = CALENDAR_DATE ( 2022, 7, 7 ) ;
#194 = ORIENTED_EDGE ( 'NONE', *, *, #228, .T. ) ;
#195 = EDGE_LOOP ( 'NONE', ( #62, #85, #113, #139 ) ) ;
#196 = PERSON_AND_ORGANIZATION_ROLE ( 'design_owner' ) ;
#197 = DIRECTION ( 'NONE',  ( 0.000000000000000000, 0.000000000000000000, 1.000000000000000000 ) ) ;
#198 = EDGE_CURVE ( 'NONE', #247, #3, #88, .T. ) ;
#199 = APPROVAL_ROLE ( '' ) ;
#200 = DIRECTION ( 'NONE',  ( -0.000000000000000000, -0.000000000000000000, -1.000000000000000000 ) ) ;
#201 = PLANE ( 'NONE',  #187 ) ;
#202 = APPLICATION_CONTEXT ( 'configuration controlled 3d designs of mechanical parts and assemblies' ) ;
#203 = ADVANCED_BREP_SHAPE_REPRESENTATION ( '1cb1', ( #145, #245 ), #9 ) ;
#204 = VECTOR ( 'NONE', #41, 1000.000000000000000 ) ;
#205 = CARTESIAN_POINT ( 'NONE',  ( -3.750000000000000000, 0.000000000000000000, 5.000000000000000000 ) ) ;
#206 = CARTESIAN_POINT ( 'NONE',  ( 0.000000000000000000, 0.000000000000000000, 505.0000000000000000 ) ) ;
#207 =( LENGTH_UNIT ( ) NAMED_UNIT ( * ) SI_UNIT ( .MILLI., .METRE. ) );
#208 =( NAMED_UNIT ( * ) SI_UNIT ( $, .STERADIAN. ) SOLID_ANGLE_UNIT ( ) );
#209 = CALENDAR_DATE ( 2022, 7, 7 ) ;
#210 = PERSON_AND_ORGANIZATION_ROLE ( 'classification_officer' ) ;
#211 = LOCAL_TIME ( 19, 33, 54.00000000000000000, #169 ) ;
#212 = DIRECTION ( 'NONE',  ( 1.000000000000000000, 0.000000000000000000, 0.000000000000000000 ) ) ;
#213 = DATE_AND_TIME ( #128, #148 ) ;
#214 = CARTESIAN_POINT ( 'NONE',  ( 3.750000000000000000, 4.592425496802573972E-16, 5.000000000000000000 ) ) ;
#215 = LINE ( 'NONE', #72, #76 ) ;
#216 = EDGE_CURVE ( 'NONE', #151, #217, #243, .T. ) ;
#217 = VERTEX_POINT ( 'NONE', #205 ) ;
#218 = CIRCLE ( 'NONE', #251, 3.750000000000000000 ) ;
#219 = LOCAL_TIME ( 19, 33, 54.00000000000000000, #135 ) ;
#220 = FACE_OUTER_BOUND ( 'NONE', #12, .T. ) ;
#221 = CLOSED_SHELL ( 'NONE', ( #120, #78, #124, #25, #27, #140, #127 ) ) ;
#222 = DIRECTION ( 'NONE',  ( -0.000000000000000000, -0.000000000000000000, -1.000000000000000000 ) ) ;
#223 = PRODUCT_RELATED_PRODUCT_CATEGORY ( 'detail', '', ( #180 ) ) ;
#224 = DIRECTION ( 'NONE',  ( 1.000000000000000000, 0.000000000000000000, 0.000000000000000000 ) ) ;
#225 = APPROVAL_PERSON_ORGANIZATION ( #109, #60, #152 ) ;
#226 = MECHANICAL_CONTEXT ( 'NONE', #202, 'mechanical' ) ;
#227 = ORIENTED_EDGE ( 'NONE', *, *, #176, .T. ) ;
#228 = EDGE_CURVE ( 'NONE', #168, #184, #167, .T. ) ;
#229 = SHAPE_DEFINITION_REPRESENTATION ( #45, #203 ) ;
#230 = DIRECTION ( 'NONE',  ( 0.000000000000000000, 0.000000000000000000, 1.000000000000000000 ) ) ;
#231 = PERSON_AND_ORGANIZATION ( #58, #189 ) ;
#232 = DIRECTION ( 'NONE',  ( -0.000000000000000000, -0.000000000000000000, -1.000000000000000000 ) ) ;
#233 = DIRECTION ( 'NONE',  ( 0.000000000000000000, 0.000000000000000000, 1.000000000000000000 ) ) ;
#234 = VECTOR ( 'NONE', #200, 1000.000000000000000 ) ;
#235 = AXIS2_PLACEMENT_3D ( 'NONE', #181, #222, #238 ) ;
#236 = CIRCLE ( 'NONE', #157, 3.750000000000000000 ) ;
#237 = DIRECTION ( 'NONE',  ( 1.000000000000000000, 0.000000000000000000, -0.000000000000000000 ) ) ;
#238 = DIRECTION ( 'NONE',  ( -1.000000000000000000, 0.000000000000000000, 0.000000000000000000 ) ) ;
#239 = CIRCLE ( 'NONE', #129, 3.750000000000000000 ) ;
#240 = APPROVAL_PERSON_ORGANIZATION ( #117, #171, #199 ) ;
#241 = DIRECTION ( 'NONE',  ( 0.000000000000000000, 0.000000000000000000, 1.000000000000000000 ) ) ;
#242 = ORIENTED_EDGE ( 'NONE', *, *, #130, .T. ) ;
#243 = LINE ( 'NONE', #64, #204 ) ;
#244 = APPROVAL ( #131, 'NEURÈENÝ' ) ;
#245 = AXIS2_PLACEMENT_3D ( 'NONE', #150, #52, #33 ) ;
#246 = DATE_TIME_ROLE ( 'classification_date' ) ;
#247 = VERTEX_POINT ( 'NONE', #5 ) ;
#248 = APPROVAL_DATE_TIME ( #115, #60 ) ;
#249 = CARTESIAN_POINT ( 'NONE',  ( -6.000000000000000888, 0.000000000000000000, 0.000000000000000000 ) ) ;
#250 = FACE_OUTER_BOUND ( 'NONE', #195, .T. ) ;
#251 = AXIS2_PLACEMENT_3D ( 'NONE', #255, #233, #20 ) ;
#252 = PERSON_AND_ORGANIZATION ( #58, #189 ) ;
#253 = SECURITY_CLASSIFICATION ( '', '', #89 ) ;
#254 = ORIENTED_EDGE ( 'NONE', *, *, #79, .F. ) ;
#255 = CARTESIAN_POINT ( 'NONE',  ( 0.000000000000000000, 0.000000000000000000, 505.0000000000000000 ) ) ;
ENDSEC;
END-ISO-10303-21;
