ISO-10303-21;
HEADER;
FILE_DESCRIPTION (( 'STEP AP203' ),
    '1' );
FILE_NAME ('ca7d.STEP',
    '2022-07-07T17:29:08',
    ( '' ),
    ( '' ),
    'SwSTEP 2.0',
    'SolidWorks 2019',
    '' );
FILE_SCHEMA (( 'CONFIG_CONTROL_DESIGN' ));
ENDSEC;

DATA;
#1 = EDGE_CURVE ( 'NONE', #179, #74, #24, .T. ) ;
#2 =( GEOMETRIC_REPRESENTATION_CONTEXT ( 3 ) GLOBAL_UNCERTAINTY_ASSIGNED_CONTEXT ( ( #191 ) ) GLOBAL_UNIT_ASSIGNED_CONTEXT ( ( #86, #225, #137 ) ) REPRESENTATION_CONTEXT ( 'NONE', 'WORKASPACE' ) );
#3 = CYLINDRICAL_SURFACE ( 'NONE', #116, 7.000000000000000000 ) ;
#4 = DIRECTION ( 'NONE',  ( 0.000000000000000000, 0.000000000000000000, 1.000000000000000000 ) ) ;
#5 = ORIENTED_EDGE ( 'NONE', *, *, #71, .T. ) ;
#6 = DIRECTION ( 'NONE',  ( 0.000000000000000000, 0.000000000000000000, 1.000000000000000000 ) ) ;
#7 = ORIENTED_EDGE ( 'NONE', *, *, #182, .F. ) ;
#8 = CIRCLE ( 'NONE', #168, 7.000000000000000000 ) ;
#9 = DIRECTION ( 'NONE',  ( 1.000000000000000000, 0.000000000000000000, -0.000000000000000000 ) ) ;
#10 = FACE_OUTER_BOUND ( 'NONE', #13, .T. ) ;
#11 = DIRECTION ( 'NONE',  ( 0.000000000000000000, 0.000000000000000000, 1.000000000000000000 ) ) ;
#12 = ADVANCED_FACE ( 'NONE', ( #52 ), #209, .T. ) ;
#13 = EDGE_LOOP ( 'NONE', ( #130, #158 ) ) ;
#14 = ORIENTED_EDGE ( 'NONE', *, *, #22, .T. ) ;
#15 = COORDINATED_UNIVERSAL_TIME_OFFSET ( 1, 0, .AHEAD. ) ;
#16 = CALENDAR_DATE ( 2022, 7, 7 ) ;
#17 = CALENDAR_DATE ( 2022, 7, 7 ) ;
#18 = PERSON_AND_ORGANIZATION ( #110, #240 ) ;
#19 = LOCAL_TIME ( 19, 29, 8.000000000000000000, #80 ) ;
#20 = APPROVAL ( #213, 'NEURÈENÝ' ) ;
#21 = ADVANCED_BREP_SHAPE_REPRESENTATION ( 'ca7d', ( #218, #41 ), #2 ) ;
#22 = EDGE_CURVE ( 'NONE', #247, #160, #196, .T. ) ;
#23 = CYLINDRICAL_SURFACE ( 'NONE', #84, 7.000000000000000000 ) ;
#24 = CIRCLE ( 'NONE', #61, 4.500000000000000000 ) ;
#25 = SECURITY_CLASSIFICATION ( '', '', #60 ) ;
#26 = APPROVAL_DATE_TIME ( #229, #20 ) ;
#27 = DIRECTION ( 'NONE',  ( -1.000000000000000000, 0.000000000000000000, 0.000000000000000000 ) ) ;
#28 = DIRECTION ( 'NONE',  ( 0.000000000000000000, 0.000000000000000000, 1.000000000000000000 ) ) ;
#29 = CYLINDRICAL_SURFACE ( 'NONE', #156, 4.500000000000000000 ) ;
#30 = ORIENTED_EDGE ( 'NONE', *, *, #59, .F. ) ;
#31 = CARTESIAN_POINT ( 'NONE',  ( 0.000000000000000000, 0.000000000000000000, 5.000000000000000000 ) ) ;
#32 = DIRECTION ( 'NONE',  ( 1.000000000000000000, 0.000000000000000000, 0.000000000000000000 ) ) ;
#33 = VECTOR ( 'NONE', #159, 1000.000000000000000 ) ;
#34 = CIRCLE ( 'NONE', #64, 4.500000000000000000 ) ;
#35 = EDGE_CURVE ( 'NONE', #144, #164, #8, .T. ) ;
#36 = ORIENTED_EDGE ( 'NONE', *, *, #81, .T. ) ;
#37 = ORIENTED_EDGE ( 'NONE', *, *, #1, .T. ) ;
#38 = PERSON_AND_ORGANIZATION ( #110, #240 ) ;
#39 = APPROVAL_ROLE ( '' ) ;
#40 = CC_DESIGN_PERSON_AND_ORGANIZATION_ASSIGNMENT ( #216, #212, ( #25 ) ) ;
#41 = AXIS2_PLACEMENT_3D ( 'NONE', #111, #96, #211 ) ;
#42 = CARTESIAN_POINT ( 'NONE',  ( 0.000000000000000000, 0.000000000000000000, 130.0000000000000000 ) ) ;
#43 = CARTESIAN_POINT ( 'NONE',  ( 0.000000000000000000, 0.000000000000000000, 130.0000000000000000 ) ) ;
#44 = AXIS2_PLACEMENT_3D ( 'NONE', #245, #125, #228 ) ;
#45 = EDGE_LOOP ( 'NONE', ( #132, #131, #37, #251 ) ) ;
#46 = CARTESIAN_POINT ( 'NONE',  ( 4.500000000000000000, 5.510910596163088569E-16, 130.0000000000000000 ) ) ;
#47 = ORIENTED_EDGE ( 'NONE', *, *, #59, .T. ) ;
#48 = DIRECTION ( 'NONE',  ( -1.000000000000000000, 0.000000000000000000, 0.000000000000000000 ) ) ;
#49 = EDGE_LOOP ( 'NONE', ( #143, #186 ) ) ;
#50 = ADVANCED_FACE ( 'NONE', ( #10 ), #107, .F. ) ;
#51 = DIRECTION ( 'NONE',  ( -0.000000000000000000, -0.000000000000000000, -1.000000000000000000 ) ) ;
#52 = FACE_OUTER_BOUND ( 'NONE', #202, .T. ) ;
#53 = CIRCLE ( 'NONE', #195, 7.000000000000000000 ) ;
#54 = EDGE_LOOP ( 'NONE', ( #232, #180 ) ) ;
#55 = APPROVAL_DATE_TIME ( #239, #233 ) ;
#56 = AXIS2_PLACEMENT_3D ( 'NONE', #204, #70, #103 ) ;
#57 = CALENDAR_DATE ( 2022, 7, 7 ) ;
#58 = APPLICATION_PROTOCOL_DEFINITION ( 'international standard', 'config_control_design', 1994, #190 ) ;
#59 = EDGE_CURVE ( 'NONE', #144, #90, #184, .T. ) ;
#60 = SECURITY_CLASSIFICATION_LEVEL ( 'unclassified' ) ;
#61 = AXIS2_PLACEMENT_3D ( 'NONE', #105, #28, #145 ) ;
#62 = APPROVAL_PERSON_ORGANIZATION ( #235, #20, #39 ) ;
#63 = AXIS2_PLACEMENT_3D ( 'NONE', #243, #72, #9 ) ;
#64 = AXIS2_PLACEMENT_3D ( 'NONE', #43, #102, #121 ) ;
#65 = CC_DESIGN_PERSON_AND_ORGANIZATION_ASSIGNMENT ( #18, #253, ( #165 ) ) ;
#66 = DIRECTION ( 'NONE',  ( 1.000000000000000000, 0.000000000000000000, 0.000000000000000000 ) ) ;
#67 = ORIENTED_EDGE ( 'NONE', *, *, #163, .T. ) ;
#68 = ORIENTED_EDGE ( 'NONE', *, *, #99, .F. ) ;
#69 = DIRECTION ( 'NONE',  ( 1.000000000000000000, 0.000000000000000000, 0.000000000000000000 ) ) ;
#70 = DIRECTION ( 'NONE',  ( 0.000000000000000000, 0.000000000000000000, 1.000000000000000000 ) ) ;
#71 = EDGE_CURVE ( 'NONE', #90, #150, #199, .T. ) ;
#72 = DIRECTION ( 'NONE',  ( 0.000000000000000000, 0.000000000000000000, 1.000000000000000000 ) ) ;
#73 = CARTESIAN_POINT ( 'NONE',  ( -4.500000000000000000, 0.000000000000000000, 130.0000000000000000 ) ) ;
#74 = VERTEX_POINT ( 'NONE', #147 ) ;
#75 = CLOSED_SHELL ( 'NONE', ( #112, #220, #194, #172, #50, #238, #12 ) ) ;
#76 = EDGE_LOOP ( 'NONE', ( #7, #67, #206, #30 ) ) ;
#77 = APPROVAL_PERSON_ORGANIZATION ( #38, #233, #155 ) ;
#78 = APPLICATION_CONTEXT ( 'configuration controlled 3d designs of mechanical parts and assemblies' ) ;
#79 = APPROVAL ( #255, 'NEURÈENÝ' ) ;
#80 = COORDINATED_UNIVERSAL_TIME_OFFSET ( 1, 0, .AHEAD. ) ;
#81 = EDGE_CURVE ( 'NONE', #247, #74, #249, .T. ) ;
#82 = DATE_TIME_ROLE ( 'creation_date' ) ;
#83 = CIRCLE ( 'NONE', #223, 4.500000000000000000 ) ;
#84 = AXIS2_PLACEMENT_3D ( 'NONE', #203, #91, #101 ) ;
#85 = DIRECTION ( 'NONE',  ( 0.000000000000000000, 0.000000000000000000, 1.000000000000000000 ) ) ;
#86 =( LENGTH_UNIT ( ) NAMED_UNIT ( * ) SI_UNIT ( .MILLI., .METRE. ) );
#87 = CARTESIAN_POINT ( 'NONE',  ( 0.000000000000000000, 0.000000000000000000, 5.000000000000000000 ) ) ;
#88 = PLANE ( 'NONE',  #63 ) ;
#89 = AXIS2_PLACEMENT_3D ( 'NONE', #176, #4, #32 ) ;
#90 = VERTEX_POINT ( 'NONE', #108 ) ;
#91 = DIRECTION ( 'NONE',  ( -0.000000000000000000, -0.000000000000000000, -1.000000000000000000 ) ) ;
#92 = DIRECTION ( 'NONE',  ( 0.000000000000000000, 0.000000000000000000, 1.000000000000000000 ) ) ;
#93 = DIRECTION ( 'NONE',  ( -0.000000000000000000, -0.000000000000000000, -1.000000000000000000 ) ) ;
#94 = AXIS2_PLACEMENT_3D ( 'NONE', #250, #92, #162 ) ;
#95 = CC_DESIGN_SECURITY_CLASSIFICATION ( #25, ( #165 ) ) ;
#96 = DIRECTION ( 'NONE',  ( 0.000000000000000000, 0.000000000000000000, 1.000000000000000000 ) ) ;
#97 = PRODUCT_DEFINITION ( 'NEZNÁMÝ', '', #165, #254 ) ;
#98 = CALENDAR_DATE ( 2022, 7, 7 ) ;
#99 = EDGE_CURVE ( 'NONE', #160, #179, #185, .T. ) ;
#100 = LOCAL_TIME ( 19, 29, 8.000000000000000000, #193 ) ;
#101 = DIRECTION ( 'NONE',  ( -1.000000000000000000, 0.000000000000000000, 0.000000000000000000 ) ) ;
#102 = DIRECTION ( 'NONE',  ( 0.000000000000000000, 0.000000000000000000, 1.000000000000000000 ) ) ;
#103 = DIRECTION ( 'NONE',  ( 1.000000000000000000, 0.000000000000000000, -0.000000000000000000 ) ) ;
#104 = FACE_BOUND ( 'NONE', #49, .T. ) ;
#105 = CARTESIAN_POINT ( 'NONE',  ( 0.000000000000000000, 0.000000000000000000, 5.000000000000000000 ) ) ;
#106 = DIRECTION ( 'NONE',  ( -0.000000000000000000, -0.000000000000000000, -1.000000000000000000 ) ) ;
#107 = PLANE ( 'NONE',  #44 ) ;
#108 = CARTESIAN_POINT ( 'NONE',  ( -7.000000000000000000, 0.000000000000000000, 0.000000000000000000 ) ) ;
#109 = DATE_AND_TIME ( #16, #127 ) ;
#110 = PERSON ( 'NEURÈENÝ', 'NEURÈENÝ', 'NEURÈENÝ', ('NEURÈENÝ'), ('NEURÈENÝ'), ('NEURÈENÝ') ) ;
#111 = CARTESIAN_POINT ( 'NONE',  ( 0.000000000000000000, 0.000000000000000000, 0.000000000000000000 ) ) ;
#112 = ADVANCED_FACE ( 'NONE', ( #244 ), #157, .T. ) ;
#113 = MECHANICAL_CONTEXT ( 'NONE', #78, 'mechanical' ) ;
#114 = PRODUCT_RELATED_PRODUCT_CATEGORY ( 'detail', '', ( #118 ) ) ;
#115 = PERSON_AND_ORGANIZATION_ROLE ( 'creator' ) ;
#116 = AXIS2_PLACEMENT_3D ( 'NONE', #178, #106, #27 ) ;
#117 = VECTOR ( 'NONE', #231, 1000.000000000000000 ) ;
#118 = PRODUCT ( 'ca7d', 'ca7d', '', ( #113 ) ) ;
#119 = CC_DESIGN_PERSON_AND_ORGANIZATION_ASSIGNMENT ( #188, #133, ( #118 ) ) ;
#120 = CARTESIAN_POINT ( 'NONE',  ( 7.000000000000000000, 8.572527594031473190E-16, 5.000000000000000000 ) ) ;
#121 = DIRECTION ( 'NONE',  ( 1.000000000000000000, 0.000000000000000000, 0.000000000000000000 ) ) ;
#122 = ORIENTED_EDGE ( 'NONE', *, *, #35, .F. ) ;
#123 = EDGE_LOOP ( 'NONE', ( #68, #234, #36, #149 ) ) ;
#124 = CARTESIAN_POINT ( 'NONE',  ( -7.000000000000000000, 0.000000000000000000, 5.000000000000000000 ) ) ;
#125 = DIRECTION ( 'NONE',  ( 0.000000000000000000, 0.000000000000000000, 1.000000000000000000 ) ) ;
#126 = CARTESIAN_POINT ( 'NONE',  ( 7.000000000000000000, 8.572527594031473190E-16, 0.000000000000000000 ) ) ;
#127 = LOCAL_TIME ( 19, 29, 8.000000000000000000, #189 ) ;
#128 = DIRECTION ( 'NONE',  ( 1.000000000000000000, 0.000000000000000000, 0.000000000000000000 ) ) ;
#129 = CC_DESIGN_PERSON_AND_ORGANIZATION_ASSIGNMENT ( #237, #134, ( #165 ) ) ;
#130 = ORIENTED_EDGE ( 'NONE', *, *, #71, .F. ) ;
#131 = ORIENTED_EDGE ( 'NONE', *, *, #99, .T. ) ;
#132 = ORIENTED_EDGE ( 'NONE', *, *, #242, .F. ) ;
#133 = PERSON_AND_ORGANIZATION_ROLE ( 'design_owner' ) ;
#134 = PERSON_AND_ORGANIZATION_ROLE ( 'design_supplier' ) ;
#135 = DATE_AND_TIME ( #98, #19 ) ;
#136 = CALENDAR_DATE ( 2022, 7, 7 ) ;
#137 =( NAMED_UNIT ( * ) SI_UNIT ( $, .STERADIAN. ) SOLID_ANGLE_UNIT ( ) );
#138 = CC_DESIGN_APPROVAL ( #233, ( #165 ) ) ;
#139 = EDGE_CURVE ( 'NONE', #74, #179, #83, .T. ) ;
#140 = DIRECTION ( 'NONE',  ( 0.000000000000000000, 0.000000000000000000, 1.000000000000000000 ) ) ;
#141 = FACE_OUTER_BOUND ( 'NONE', #123, .T. ) ;
#142 = CARTESIAN_POINT ( 'NONE',  ( 0.000000000000000000, 0.000000000000000000, 5.000000000000000000 ) ) ;
#143 = ORIENTED_EDGE ( 'NONE', *, *, #139, .F. ) ;
#144 = VERTEX_POINT ( 'NONE', #124 ) ;
#145 = DIRECTION ( 'NONE',  ( 1.000000000000000000, 0.000000000000000000, 0.000000000000000000 ) ) ;
#146 = CARTESIAN_POINT ( 'NONE',  ( 4.500000000000000000, 5.510910596163088569E-16, 5.000000000000000000 ) ) ;
#147 = CARTESIAN_POINT ( 'NONE',  ( -4.500000000000000000, 0.000000000000000000, 5.000000000000000000 ) ) ;
#148 = APPROVAL_PERSON_ORGANIZATION ( #167, #79, #166 ) ;
#149 = ORIENTED_EDGE ( 'NONE', *, *, #139, .T. ) ;
#150 = VERTEX_POINT ( 'NONE', #126 ) ;
#151 = APPROVAL_DATE_TIME ( #215, #79 ) ;
#152 = APPLICATION_PROTOCOL_DEFINITION ( 'international standard', 'config_control_design', 1994, #78 ) ;
#153 = VECTOR ( 'NONE', #161, 1000.000000000000000 ) ;
#154 = PERSON_AND_ORGANIZATION ( #110, #240 ) ;
#155 = APPROVAL_ROLE ( '' ) ;
#156 = AXIS2_PLACEMENT_3D ( 'NONE', #201, #222, #48 ) ;
#157 = CYLINDRICAL_SURFACE ( 'NONE', #181, 4.500000000000000000 ) ;
#158 = ORIENTED_EDGE ( 'NONE', *, *, #214, .F. ) ;
#159 = DIRECTION ( 'NONE',  ( -0.000000000000000000, -0.000000000000000000, -1.000000000000000000 ) ) ;
#160 = VERTEX_POINT ( 'NONE', #205 ) ;
#161 = DIRECTION ( 'NONE',  ( -0.000000000000000000, -0.000000000000000000, -1.000000000000000000 ) ) ;
#162 = DIRECTION ( 'NONE',  ( 1.000000000000000000, 0.000000000000000000, 0.000000000000000000 ) ) ;
#163 = EDGE_CURVE ( 'NONE', #164, #150, #248, .T. ) ;
#164 = VERTEX_POINT ( 'NONE', #198 ) ;
#165 = PRODUCT_DEFINITION_FORMATION_WITH_SPECIFIED_SOURCE ( 'LIBOVOLNÝ', '', #118, .NOT_KNOWN. ) ;
#166 = APPROVAL_ROLE ( '' ) ;
#167 = PERSON_AND_ORGANIZATION ( #110, #240 ) ;
#168 = AXIS2_PLACEMENT_3D ( 'NONE', #87, #11, #128 ) ;
#169 = AXIS2_PLACEMENT_3D ( 'NONE', #142, #140, #66 ) ;
#170 = CC_DESIGN_DATE_AND_TIME_ASSIGNMENT ( #109, #82, ( #97 ) ) ;
#171 = DATE_TIME_ROLE ( 'classification_date' ) ;
#172 = ADVANCED_FACE ( 'NONE', ( #104, #183 ), #88, .T. ) ;
#173 = LOCAL_TIME ( 19, 29, 8.000000000000000000, #15 ) ;
#174 = DIRECTION ( 'NONE',  ( -1.000000000000000000, 0.000000000000000000, 0.000000000000000000 ) ) ;
#175 = CARTESIAN_POINT ( 'NONE',  ( -4.500000000000000000, 0.000000000000000000, 130.0000000000000000 ) ) ;
#176 = CARTESIAN_POINT ( 'NONE',  ( 0.000000000000000000, 0.000000000000000000, 130.0000000000000000 ) ) ;
#177 = SHAPE_DEFINITION_REPRESENTATION ( #219, #21 ) ;
#178 = CARTESIAN_POINT ( 'NONE',  ( 0.000000000000000000, 0.000000000000000000, 5.000000000000000000 ) ) ;
#179 = VERTEX_POINT ( 'NONE', #146 ) ;
#180 = ORIENTED_EDGE ( 'NONE', *, *, #182, .T. ) ;
#181 = AXIS2_PLACEMENT_3D ( 'NONE', #42, #51, #174 ) ;
#182 = EDGE_CURVE ( 'NONE', #164, #144, #207, .T. ) ;
#183 = FACE_OUTER_BOUND ( 'NONE', #54, .T. ) ;
#184 = LINE ( 'NONE', #208, #217 ) ;
#185 = LINE ( 'NONE', #46, #153 ) ;
#186 = ORIENTED_EDGE ( 'NONE', *, *, #1, .F. ) ;
#187 = ORIENTED_EDGE ( 'NONE', *, *, #242, .T. ) ;
#188 = PERSON_AND_ORGANIZATION ( #110, #240 ) ;
#189 = COORDINATED_UNIVERSAL_TIME_OFFSET ( 1, 0, .AHEAD. ) ;
#190 = APPLICATION_CONTEXT ( 'configuration controlled 3d designs of mechanical parts and assemblies' ) ;
#191 = UNCERTAINTY_MEASURE_WITH_UNIT (LENGTH_MEASURE( 1.000000000000000082E-05 ), #86, 'distance_accuracy_value', 'NONE');
#192 = COORDINATED_UNIVERSAL_TIME_OFFSET ( 1, 0, .AHEAD. ) ;
#193 = COORDINATED_UNIVERSAL_TIME_OFFSET ( 1, 0, .AHEAD. ) ;
#194 = ADVANCED_FACE ( 'NONE', ( #221 ), #3, .T. ) ;
#195 = AXIS2_PLACEMENT_3D ( 'NONE', #246, #85, #69 ) ;
#196 = CIRCLE ( 'NONE', #89, 4.500000000000000000 ) ;
#197 = CC_DESIGN_DATE_AND_TIME_ASSIGNMENT ( #135, #171, ( #25 ) ) ;
#198 = CARTESIAN_POINT ( 'NONE',  ( 7.000000000000000000, 8.572527594031473190E-16, 5.000000000000000000 ) ) ;
#199 = CIRCLE ( 'NONE', #94, 7.000000000000000000 ) ;
#200 = CC_DESIGN_APPROVAL ( #20, ( #25 ) ) ;
#201 = CARTESIAN_POINT ( 'NONE',  ( 0.000000000000000000, 0.000000000000000000, 130.0000000000000000 ) ) ;
#202 = EDGE_LOOP ( 'NONE', ( #14, #187 ) ) ;
#203 = CARTESIAN_POINT ( 'NONE',  ( 0.000000000000000000, 0.000000000000000000, 5.000000000000000000 ) ) ;
#204 = CARTESIAN_POINT ( 'NONE',  ( 0.000000000000000000, 0.000000000000000000, 130.0000000000000000 ) ) ;
#205 = CARTESIAN_POINT ( 'NONE',  ( 4.500000000000000000, 5.510910596163088569E-16, 130.0000000000000000 ) ) ;
#206 = ORIENTED_EDGE ( 'NONE', *, *, #214, .T. ) ;
#207 = CIRCLE ( 'NONE', #169, 7.000000000000000000 ) ;
#208 = CARTESIAN_POINT ( 'NONE',  ( -7.000000000000000000, 0.000000000000000000, 5.000000000000000000 ) ) ;
#209 = PLANE ( 'NONE',  #56 ) ;
#210 = EDGE_LOOP ( 'NONE', ( #226, #122, #47, #5 ) ) ;
#211 = DIRECTION ( 'NONE',  ( 1.000000000000000000, 0.000000000000000000, 0.000000000000000000 ) ) ;
#212 = PERSON_AND_ORGANIZATION_ROLE ( 'classification_officer' ) ;
#213 = APPROVAL_STATUS ( 'not_yet_approved' ) ;
#214 = EDGE_CURVE ( 'NONE', #150, #90, #53, .T. ) ;
#215 = DATE_AND_TIME ( #136, #173 ) ;
#216 = PERSON_AND_ORGANIZATION ( #110, #240 ) ;
#217 = VECTOR ( 'NONE', #93, 1000.000000000000000 ) ;
#218 = MANIFOLD_SOLID_BREP ( 'Pøidat vysunutím3', #75 ) ;
#219 = PRODUCT_DEFINITION_SHAPE ( 'NONE', 'NONE',  #97 ) ;
#220 = ADVANCED_FACE ( 'NONE', ( #230 ), #23, .T. ) ;
#221 = FACE_OUTER_BOUND ( 'NONE', #210, .T. ) ;
#222 = DIRECTION ( 'NONE',  ( -0.000000000000000000, -0.000000000000000000, -1.000000000000000000 ) ) ;
#223 = AXIS2_PLACEMENT_3D ( 'NONE', #31, #6, #227 ) ;
#224 = LOCAL_TIME ( 19, 29, 8.000000000000000000, #192 ) ;
#225 =( NAMED_UNIT ( * ) PLANE_ANGLE_UNIT ( ) SI_UNIT ( $, .RADIAN. ) );
#226 = ORIENTED_EDGE ( 'NONE', *, *, #163, .F. ) ;
#227 = DIRECTION ( 'NONE',  ( 1.000000000000000000, 0.000000000000000000, 0.000000000000000000 ) ) ;
#228 = DIRECTION ( 'NONE',  ( 1.000000000000000000, 0.000000000000000000, -0.000000000000000000 ) ) ;
#229 = DATE_AND_TIME ( #17, #224 ) ;
#230 = FACE_OUTER_BOUND ( 'NONE', #76, .T. ) ;
#231 = DIRECTION ( 'NONE',  ( -0.000000000000000000, -0.000000000000000000, -1.000000000000000000 ) ) ;
#232 = ORIENTED_EDGE ( 'NONE', *, *, #35, .T. ) ;
#233 = APPROVAL ( #236, 'NEURÈENÝ' ) ;
#234 = ORIENTED_EDGE ( 'NONE', *, *, #22, .F. ) ;
#235 = PERSON_AND_ORGANIZATION ( #110, #240 ) ;
#236 = APPROVAL_STATUS ( 'not_yet_approved' ) ;
#237 = PERSON_AND_ORGANIZATION ( #110, #240 ) ;
#238 = ADVANCED_FACE ( 'NONE', ( #141 ), #29, .T. ) ;
#239 = DATE_AND_TIME ( #57, #100 ) ;
#240 = ORGANIZATION ( 'NEURÈENÝ', 'NEURÈENÝ', '' ) ;
#241 = CC_DESIGN_PERSON_AND_ORGANIZATION_ASSIGNMENT ( #154, #115, ( #97 ) ) ;
#242 = EDGE_CURVE ( 'NONE', #160, #247, #34, .T. ) ;
#243 = CARTESIAN_POINT ( 'NONE',  ( 0.000000000000000000, 0.000000000000000000, 5.000000000000000000 ) ) ;
#244 = FACE_OUTER_BOUND ( 'NONE', #45, .T. ) ;
#245 = CARTESIAN_POINT ( 'NONE',  ( 0.000000000000000000, 0.000000000000000000, 0.000000000000000000 ) ) ;
#246 = CARTESIAN_POINT ( 'NONE',  ( 0.000000000000000000, 0.000000000000000000, 0.000000000000000000 ) ) ;
#247 = VERTEX_POINT ( 'NONE', #175 ) ;
#248 = LINE ( 'NONE', #120, #33 ) ;
#249 = LINE ( 'NONE', #73, #117 ) ;
#250 = CARTESIAN_POINT ( 'NONE',  ( 0.000000000000000000, 0.000000000000000000, 0.000000000000000000 ) ) ;
#251 = ORIENTED_EDGE ( 'NONE', *, *, #81, .F. ) ;
#252 = CC_DESIGN_APPROVAL ( #79, ( #97 ) ) ;
#253 = PERSON_AND_ORGANIZATION_ROLE ( 'creator' ) ;
#254 = DESIGN_CONTEXT ( 'detailed design', #190, 'design' ) ;
#255 = APPROVAL_STATUS ( 'not_yet_approved' ) ;
ENDSEC;
END-ISO-10303-21;
