ISO-10303-21;
HEADER;
FILE_DESCRIPTION (( 'STEP AP203' ),
    '1' );
FILE_NAME ('26a3.STEP',
    '2022-07-07T17:44:48',
    ( '' ),
    ( '' ),
    'SwSTEP 2.0',
    'SolidWorks 2019',
    '' );
FILE_SCHEMA (( 'CONFIG_CONTROL_DESIGN' ));
ENDSEC;

DATA;
#1 = ORIENTED_EDGE ( 'NONE', *, *, #86, .F. ) ;
#2 = EDGE_LOOP ( 'NONE', ( #99, #198 ) ) ;
#3 = CARTESIAN_POINT ( 'NONE',  ( 5.000000000000000000, 6.123233995736766282E-16, 3.000000000000000000 ) ) ;
#4 = DIRECTION ( 'NONE',  ( 0.000000000000000000, 0.000000000000000000, 1.000000000000000000 ) ) ;
#5 = CARTESIAN_POINT ( 'NONE',  ( 0.000000000000000000, 0.000000000000000000, 0.000000000000000000 ) ) ;
#6 = AXIS2_PLACEMENT_3D ( 'NONE', #5, #187, #90 ) ;
#7 = PERSON_AND_ORGANIZATION_ROLE ( 'design_owner' ) ;
#8 = CARTESIAN_POINT ( 'NONE',  ( 0.000000000000000000, 0.000000000000000000, 403.0000000000000000 ) ) ;
#9 = PERSON_AND_ORGANIZATION ( #41, #49 ) ;
#10 = CIRCLE ( 'NONE', #121, 2.600000000000000089 ) ;
#11 = APPROVAL_PERSON_ORGANIZATION ( #210, #54, #191 ) ;
#12 = FACE_OUTER_BOUND ( 'NONE', #2, .T. ) ;
#13 = CALENDAR_DATE ( 2022, 7, 7 ) ;
#14 = CC_DESIGN_PERSON_AND_ORGANIZATION_ASSIGNMENT ( #67, #146, ( #220 ) ) ;
#15 = AXIS2_PLACEMENT_3D ( 'NONE', #8, #161, #65 ) ;
#16 = ORIENTED_EDGE ( 'NONE', *, *, #141, .T. ) ;
#17 = EDGE_LOOP ( 'NONE', ( #35, #98 ) ) ;
#18 = ORIENTED_EDGE ( 'NONE', *, *, #136, .F. ) ;
#19 = EDGE_CURVE ( 'NONE', #157, #36, #83, .T. ) ;
#20 = EDGE_LOOP ( 'NONE', ( #64, #78 ) ) ;
#21 = AXIS2_PLACEMENT_3D ( 'NONE', #162, #104, #240 ) ;
#22 = DIRECTION ( 'NONE',  ( 1.000000000000000000, 0.000000000000000000, 0.000000000000000000 ) ) ;
#23 = DIRECTION ( 'NONE',  ( 0.000000000000000000, 0.000000000000000000, 1.000000000000000000 ) ) ;
#24 = LINE ( 'NONE', #130, #103 ) ;
#25 = CARTESIAN_POINT ( 'NONE',  ( 5.000000000000000000, 6.123233995736766282E-16, 3.000000000000000000 ) ) ;
#26 = APPROVAL_STATUS ( 'not_yet_approved' ) ;
#27 = CARTESIAN_POINT ( 'NONE',  ( -5.000000000000000000, 0.000000000000000000, 0.000000000000000000 ) ) ;
#28 = DATE_AND_TIME ( #88, #100 ) ;
#29 =( NAMED_UNIT ( * ) PLANE_ANGLE_UNIT ( ) SI_UNIT ( $, .RADIAN. ) );
#30 = LOCAL_TIME ( 19, 44, 48.00000000000000000, #246 ) ;
#31 = DIRECTION ( 'NONE',  ( 0.000000000000000000, 0.000000000000000000, 1.000000000000000000 ) ) ;
#32 = DESIGN_CONTEXT ( 'detailed design', #171, 'design' ) ;
#33 = PRODUCT_DEFINITION ( 'NEZNÁMÝ', '', #220, #32 ) ;
#34 = ADVANCED_FACE ( 'NONE', ( #236 ), #115, .T. ) ;
#35 = ORIENTED_EDGE ( 'NONE', *, *, #61, .F. ) ;
#36 = VERTEX_POINT ( 'NONE', #217 ) ;
#37 = ORIENTED_EDGE ( 'NONE', *, *, #254, .T. ) ;
#38 = ADVANCED_FACE ( 'NONE', ( #62 ), #140, .T. ) ;
#39 = DIRECTION ( 'NONE',  ( -0.000000000000000000, -0.000000000000000000, -1.000000000000000000 ) ) ;
#40 = CC_DESIGN_PERSON_AND_ORGANIZATION_ASSIGNMENT ( #9, #185, ( #220 ) ) ;
#41 = PERSON ( 'NEURÈENÝ', 'NEURÈENÝ', 'NEURÈENÝ', ('NEURÈENÝ'), ('NEURÈENÝ'), ('NEURÈENÝ') ) ;
#42 = CARTESIAN_POINT ( 'NONE',  ( 0.000000000000000000, 0.000000000000000000, 3.000000000000000000 ) ) ;
#43 = LINE ( 'NONE', #25, #70 ) ;
#44 = CARTESIAN_POINT ( 'NONE',  ( 0.000000000000000000, 0.000000000000000000, 3.000000000000000000 ) ) ;
#45 = APPROVAL_DATE_TIME ( #208, #122 ) ;
#46 = AXIS2_PLACEMENT_3D ( 'NONE', #221, #39, #120 ) ;
#47 = CARTESIAN_POINT ( 'NONE',  ( -2.600000000000000089, 0.000000000000000000, 403.0000000000000000 ) ) ;
#48 = DIRECTION ( 'NONE',  ( 1.000000000000000000, 0.000000000000000000, 0.000000000000000000 ) ) ;
#49 = ORGANIZATION ( 'NEURÈENÝ', 'NEURÈENÝ', '' ) ;
#50 = DIRECTION ( 'NONE',  ( -1.000000000000000000, 0.000000000000000000, 0.000000000000000000 ) ) ;
#51 = PERSON_AND_ORGANIZATION ( #41, #49 ) ;
#52 = COORDINATED_UNIVERSAL_TIME_OFFSET ( 1, 0, .AHEAD. ) ;
#53 = DATE_TIME_ROLE ( 'creation_date' ) ;
#54 = APPROVAL ( #26, 'NEURÈENÝ' ) ;
#55 = AXIS2_PLACEMENT_3D ( 'NONE', #42, #209, #123 ) ;
#56 = EDGE_LOOP ( 'NONE', ( #1, #253, #16, #37 ) ) ;
#57 = LOCAL_TIME ( 19, 44, 48.00000000000000000, #193 ) ;
#58 = ORIENTED_EDGE ( 'NONE', *, *, #141, .F. ) ;
#59 = MANIFOLD_SOLID_BREP ( 'Pøidat vysunutím3', #75 ) ;
#60 = DIRECTION ( 'NONE',  ( -0.000000000000000000, -0.000000000000000000, -1.000000000000000000 ) ) ;
#61 = EDGE_CURVE ( 'NONE', #142, #155, #156, .T. ) ;
#62 = FACE_OUTER_BOUND ( 'NONE', #235, .T. ) ;
#63 = APPLICATION_CONTEXT ( 'configuration controlled 3d designs of mechanical parts and assemblies' ) ;
#64 = ORIENTED_EDGE ( 'NONE', *, *, #254, .F. ) ;
#65 = DIRECTION ( 'NONE',  ( 1.000000000000000000, 0.000000000000000000, -0.000000000000000000 ) ) ;
#66 = FACE_OUTER_BOUND ( 'NONE', #20, .T. ) ;
#67 = PERSON_AND_ORGANIZATION ( #41, #49 ) ;
#68 = LINE ( 'NONE', #148, #92 ) ;
#69 = APPROVAL_DATE_TIME ( #107, #174 ) ;
#70 = VECTOR ( 'NONE', #105, 1000.000000000000000 ) ;
#71 = FACE_OUTER_BOUND ( 'NONE', #102, .T. ) ;
#72 = PERSON_AND_ORGANIZATION ( #41, #49 ) ;
#73 = PERSON_AND_ORGANIZATION ( #41, #49 ) ;
#74 = PLANE ( 'NONE',  #124 ) ;
#75 = CLOSED_SHELL ( 'NONE', ( #77, #211, #34, #242, #225, #38, #201 ) ) ;
#76 = CIRCLE ( 'NONE', #204, 2.600000000000000089 ) ;
#77 = ADVANCED_FACE ( 'NONE', ( #87 ), #182, .T. ) ;
#78 = ORIENTED_EDGE ( 'NONE', *, *, #233, .F. ) ;
#79 = CARTESIAN_POINT ( 'NONE',  ( 0.000000000000000000, 0.000000000000000000, 3.000000000000000000 ) ) ;
#80 = ORIENTED_EDGE ( 'NONE', *, *, #192, .T. ) ;
#81 = ORIENTED_EDGE ( 'NONE', *, *, #192, .F. ) ;
#82 = DIRECTION ( 'NONE',  ( 0.000000000000000000, 0.000000000000000000, 1.000000000000000000 ) ) ;
#83 = CIRCLE ( 'NONE', #97, 2.600000000000000089 ) ;
#84 = FACE_OUTER_BOUND ( 'NONE', #176, .T. ) ;
#85 = AXIS2_PLACEMENT_3D ( 'NONE', #186, #31, #48 ) ;
#86 = EDGE_CURVE ( 'NONE', #179, #158, #43, .T. ) ;
#87 = FACE_OUTER_BOUND ( 'NONE', #138, .T. ) ;
#88 = CALENDAR_DATE ( 2022, 7, 7 ) ;
#89 = CARTESIAN_POINT ( 'NONE',  ( 0.000000000000000000, 0.000000000000000000, 3.000000000000000000 ) ) ;
#90 = DIRECTION ( 'NONE',  ( 1.000000000000000000, 0.000000000000000000, 0.000000000000000000 ) ) ;
#91 = APPROVAL_STATUS ( 'not_yet_approved' ) ;
#92 = VECTOR ( 'NONE', #226, 1000.000000000000000 ) ;
#93 = CALENDAR_DATE ( 2022, 7, 7 ) ;
#94 = DATE_AND_TIME ( #13, #30 ) ;
#95 = PERSON_AND_ORGANIZATION_ROLE ( 'creator' ) ;
#96 = CALENDAR_DATE ( 2022, 7, 7 ) ;
#97 = AXIS2_PLACEMENT_3D ( 'NONE', #153, #118, #177 ) ;
#98 = ORIENTED_EDGE ( 'NONE', *, *, #160, .F. ) ;
#99 = ORIENTED_EDGE ( 'NONE', *, *, #132, .T. ) ;
#100 = LOCAL_TIME ( 19, 44, 48.00000000000000000, #129 ) ;
#101 = ORIENTED_EDGE ( 'NONE', *, *, #116, .T. ) ;
#102 = EDGE_LOOP ( 'NONE', ( #216, #154 ) ) ;
#103 = VECTOR ( 'NONE', #223, 1000.000000000000000 ) ;
#104 = DIRECTION ( 'NONE',  ( 0.000000000000000000, 0.000000000000000000, 1.000000000000000000 ) ) ;
#105 = DIRECTION ( 'NONE',  ( -0.000000000000000000, -0.000000000000000000, -1.000000000000000000 ) ) ;
#106 = DIRECTION ( 'NONE',  ( 1.000000000000000000, 0.000000000000000000, 0.000000000000000000 ) ) ;
#107 = DATE_AND_TIME ( #96, #57 ) ;
#108 = CC_DESIGN_PERSON_AND_ORGANIZATION_ASSIGNMENT ( #51, #7, ( #152 ) ) ;
#109 = APPROVAL_PERSON_ORGANIZATION ( #231, #174, #113 ) ;
#110 = PLANE ( 'NONE',  #15 ) ;
#111 = DIRECTION ( 'NONE',  ( 0.000000000000000000, 0.000000000000000000, 1.000000000000000000 ) ) ;
#112 = MECHANICAL_CONTEXT ( 'NONE', #63, 'mechanical' ) ;
#113 = APPROVAL_ROLE ( '' ) ;
#114 = PRODUCT_DEFINITION_SHAPE ( 'NONE', 'NONE',  #33 ) ;
#115 = CYLINDRICAL_SURFACE ( 'NONE', #237, 5.000000000000000000 ) ;
#116 = EDGE_CURVE ( 'NONE', #157, #142, #24, .T. ) ;
#117 = VERTEX_POINT ( 'NONE', #27 ) ;
#118 = DIRECTION ( 'NONE',  ( 0.000000000000000000, 0.000000000000000000, 1.000000000000000000 ) ) ;
#119 = CIRCLE ( 'NONE', #85, 5.000000000000000000 ) ;
#120 = DIRECTION ( 'NONE',  ( -1.000000000000000000, 0.000000000000000000, 0.000000000000000000 ) ) ;
#121 = AXIS2_PLACEMENT_3D ( 'NONE', #125, #128, #106 ) ;
#122 = APPROVAL ( #91, 'NEURÈENÝ' ) ;
#123 = DIRECTION ( 'NONE',  ( 1.000000000000000000, 0.000000000000000000, 0.000000000000000000 ) ) ;
#124 = AXIS2_PLACEMENT_3D ( 'NONE', #89, #111, #228 ) ;
#125 = CARTESIAN_POINT ( 'NONE',  ( 0.000000000000000000, 0.000000000000000000, 3.000000000000000000 ) ) ;
#126 = PLANE ( 'NONE',  #244 ) ;
#127 = DATE_TIME_ROLE ( 'classification_date' ) ;
#128 = DIRECTION ( 'NONE',  ( 0.000000000000000000, 0.000000000000000000, 1.000000000000000000 ) ) ;
#129 = COORDINATED_UNIVERSAL_TIME_OFFSET ( 1, 0, .AHEAD. ) ;
#130 = CARTESIAN_POINT ( 'NONE',  ( -2.600000000000000089, 0.000000000000000000, 403.0000000000000000 ) ) ;
#131 = APPLICATION_PROTOCOL_DEFINITION ( 'international standard', 'config_control_design', 1994, #171 ) ;
#132 = EDGE_CURVE ( 'NONE', #255, #179, #247, .T. ) ;
#133 = CALENDAR_DATE ( 2022, 7, 7 ) ;
#134 = APPROVAL_STATUS ( 'not_yet_approved' ) ;
#135 = AXIS2_PLACEMENT_3D ( 'NONE', #44, #222, #50 ) ;
#136 = EDGE_CURVE ( 'NONE', #179, #255, #168, .T. ) ;
#137 = ORIENTED_EDGE ( 'NONE', *, *, #19, .F. ) ;
#138 = EDGE_LOOP ( 'NONE', ( #239, #80, #215, #199 ) ) ;
#139 = DIRECTION ( 'NONE',  ( -1.000000000000000000, 0.000000000000000000, 0.000000000000000000 ) ) ;
#140 = CYLINDRICAL_SURFACE ( 'NONE', #46, 2.600000000000000089 ) ;
#141 = EDGE_CURVE ( 'NONE', #255, #117, #68, .T. ) ;
#142 = VERTEX_POINT ( 'NONE', #227 ) ;
#143 = CYLINDRICAL_SURFACE ( 'NONE', #135, 5.000000000000000000 ) ;
#144 = PRODUCT_RELATED_PRODUCT_CATEGORY ( 'detail', '', ( #152 ) ) ;
#145 = CARTESIAN_POINT ( 'NONE',  ( 0.000000000000000000, 0.000000000000000000, 0.000000000000000000 ) ) ;
#146 = PERSON_AND_ORGANIZATION_ROLE ( 'design_supplier' ) ;
#147 = DIRECTION ( 'NONE',  ( -0.000000000000000000, -0.000000000000000000, -1.000000000000000000 ) ) ;
#148 = CARTESIAN_POINT ( 'NONE',  ( -5.000000000000000000, 0.000000000000000000, 3.000000000000000000 ) ) ;
#149 = DATE_AND_TIME ( #133, #151 ) ;
#150 = SECURITY_CLASSIFICATION ( '', '', #224 ) ;
#151 = LOCAL_TIME ( 19, 44, 48.00000000000000000, #52 ) ;
#152 = PRODUCT ( '26a3', '26a3', '', ( #112 ) ) ;
#153 = CARTESIAN_POINT ( 'NONE',  ( 0.000000000000000000, 0.000000000000000000, 403.0000000000000000 ) ) ;
#154 = ORIENTED_EDGE ( 'NONE', *, *, #230, .T. ) ;
#155 = VERTEX_POINT ( 'NONE', #203 ) ;
#156 = CIRCLE ( 'NONE', #195, 2.600000000000000089 ) ;
#157 = VERTEX_POINT ( 'NONE', #47 ) ;
#158 = VERTEX_POINT ( 'NONE', #243 ) ;
#159 =( GEOMETRIC_REPRESENTATION_CONTEXT ( 3 ) GLOBAL_UNCERTAINTY_ASSIGNED_CONTEXT ( ( #197 ) ) GLOBAL_UNIT_ASSIGNED_CONTEXT ( ( #173, #29, #170 ) ) REPRESENTATION_CONTEXT ( 'NONE', 'WORKASPACE' ) );
#160 = EDGE_CURVE ( 'NONE', #155, #142, #10, .T. ) ;
#161 = DIRECTION ( 'NONE',  ( 0.000000000000000000, 0.000000000000000000, 1.000000000000000000 ) ) ;
#162 = CARTESIAN_POINT ( 'NONE',  ( 0.000000000000000000, 0.000000000000000000, 3.000000000000000000 ) ) ;
#163 = COORDINATED_UNIVERSAL_TIME_OFFSET ( 1, 0, .AHEAD. ) ;
#164 = AXIS2_PLACEMENT_3D ( 'NONE', #212, #175, #251 ) ;
#165 = CARTESIAN_POINT ( 'NONE',  ( 2.600000000000000089, 3.184081677783118191E-16, 403.0000000000000000 ) ) ;
#166 = APPLICATION_PROTOCOL_DEFINITION ( 'international standard', 'config_control_design', 1994, #63 ) ;
#167 = FACE_BOUND ( 'NONE', #17, .T. ) ;
#168 = CIRCLE ( 'NONE', #55, 5.000000000000000000 ) ;
#169 = SHAPE_DEFINITION_REPRESENTATION ( #114, #219 ) ;
#170 =( NAMED_UNIT ( * ) SI_UNIT ( $, .STERADIAN. ) SOLID_ANGLE_UNIT ( ) );
#171 = APPLICATION_CONTEXT ( 'configuration controlled 3d designs of mechanical parts and assemblies' ) ;
#172 = APPROVAL_PERSON_ORGANIZATION ( #73, #122, #188 ) ;
#173 =( LENGTH_UNIT ( ) NAMED_UNIT ( * ) SI_UNIT ( .MILLI., .METRE. ) );
#174 = APPROVAL ( #134, 'NEURÈENÝ' ) ;
#175 = DIRECTION ( 'NONE',  ( 0.000000000000000000, 0.000000000000000000, 1.000000000000000000 ) ) ;
#176 = EDGE_LOOP ( 'NONE', ( #18, #238, #178, #58 ) ) ;
#177 = DIRECTION ( 'NONE',  ( 1.000000000000000000, 0.000000000000000000, 0.000000000000000000 ) ) ;
#178 = ORIENTED_EDGE ( 'NONE', *, *, #233, .T. ) ;
#179 = VERTEX_POINT ( 'NONE', #3 ) ;
#180 = CC_DESIGN_APPROVAL ( #122, ( #150 ) ) ;
#181 = CIRCLE ( 'NONE', #6, 5.000000000000000000 ) ;
#182 = CYLINDRICAL_SURFACE ( 'NONE', #213, 2.600000000000000089 ) ;
#183 = DIRECTION ( 'NONE',  ( -1.000000000000000000, 0.000000000000000000, 0.000000000000000000 ) ) ;
#184 = DIRECTION ( 'NONE',  ( 1.000000000000000000, 0.000000000000000000, -0.000000000000000000 ) ) ;
#185 = PERSON_AND_ORGANIZATION_ROLE ( 'creator' ) ;
#186 = CARTESIAN_POINT ( 'NONE',  ( 0.000000000000000000, 0.000000000000000000, 0.000000000000000000 ) ) ;
#187 = DIRECTION ( 'NONE',  ( 0.000000000000000000, 0.000000000000000000, 1.000000000000000000 ) ) ;
#188 = APPROVAL_ROLE ( '' ) ;
#189 = CARTESIAN_POINT ( 'NONE',  ( -5.000000000000000000, 0.000000000000000000, 3.000000000000000000 ) ) ;
#190 = PERSON_AND_ORGANIZATION_ROLE ( 'classification_officer' ) ;
#191 = APPROVAL_ROLE ( '' ) ;
#192 = EDGE_CURVE ( 'NONE', #36, #155, #207, .T. ) ;
#193 = COORDINATED_UNIVERSAL_TIME_OFFSET ( 1, 0, .AHEAD. ) ;
#194 = CC_DESIGN_PERSON_AND_ORGANIZATION_ASSIGNMENT ( #72, #190, ( #150 ) ) ;
#195 = AXIS2_PLACEMENT_3D ( 'NONE', #200, #82, #22 ) ;
#196 = CC_DESIGN_APPROVAL ( #54, ( #33 ) ) ;
#197 = UNCERTAINTY_MEASURE_WITH_UNIT (LENGTH_MEASURE( 1.000000000000000082E-05 ), #173, 'distance_accuracy_value', 'NONE');
#198 = ORIENTED_EDGE ( 'NONE', *, *, #136, .T. ) ;
#199 = ORIENTED_EDGE ( 'NONE', *, *, #116, .F. ) ;
#200 = CARTESIAN_POINT ( 'NONE',  ( 0.000000000000000000, 0.000000000000000000, 3.000000000000000000 ) ) ;
#201 = ADVANCED_FACE ( 'NONE', ( #71 ), #110, .T. ) ;
#202 = CC_DESIGN_APPROVAL ( #174, ( #220 ) ) ;
#203 = CARTESIAN_POINT ( 'NONE',  ( 2.600000000000000089, 3.184081677783118191E-16, 3.000000000000000000 ) ) ;
#204 = AXIS2_PLACEMENT_3D ( 'NONE', #245, #4, #206 ) ;
#205 = DIRECTION ( 'NONE',  ( -0.000000000000000000, -0.000000000000000000, -1.000000000000000000 ) ) ;
#206 = DIRECTION ( 'NONE',  ( 1.000000000000000000, 0.000000000000000000, 0.000000000000000000 ) ) ;
#207 = LINE ( 'NONE', #165, #214 ) ;
#208 = DATE_AND_TIME ( #93, #232 ) ;
#209 = DIRECTION ( 'NONE',  ( 0.000000000000000000, 0.000000000000000000, 1.000000000000000000 ) ) ;
#210 = PERSON_AND_ORGANIZATION ( #41, #49 ) ;
#211 = ADVANCED_FACE ( 'NONE', ( #84 ), #143, .T. ) ;
#212 = CARTESIAN_POINT ( 'NONE',  ( 0.000000000000000000, 0.000000000000000000, 0.000000000000000000 ) ) ;
#213 = AXIS2_PLACEMENT_3D ( 'NONE', #248, #147, #183 ) ;
#214 = VECTOR ( 'NONE', #205, 1000.000000000000000 ) ;
#215 = ORIENTED_EDGE ( 'NONE', *, *, #160, .T. ) ;
#216 = ORIENTED_EDGE ( 'NONE', *, *, #19, .T. ) ;
#217 = CARTESIAN_POINT ( 'NONE',  ( 2.600000000000000089, 3.184081677783118191E-16, 403.0000000000000000 ) ) ;
#218 = CC_DESIGN_DATE_AND_TIME_ASSIGNMENT ( #149, #53, ( #33 ) ) ;
#219 = ADVANCED_BREP_SHAPE_REPRESENTATION ( '26a3', ( #59, #164 ), #159 ) ;
#220 = PRODUCT_DEFINITION_FORMATION_WITH_SPECIFIED_SOURCE ( 'LIBOVOLNÝ', '', #152, .NOT_KNOWN. ) ;
#221 = CARTESIAN_POINT ( 'NONE',  ( 0.000000000000000000, 0.000000000000000000, 403.0000000000000000 ) ) ;
#222 = DIRECTION ( 'NONE',  ( -0.000000000000000000, -0.000000000000000000, -1.000000000000000000 ) ) ;
#223 = DIRECTION ( 'NONE',  ( -0.000000000000000000, -0.000000000000000000, -1.000000000000000000 ) ) ;
#224 = SECURITY_CLASSIFICATION_LEVEL ( 'unclassified' ) ;
#225 = ADVANCED_FACE ( 'NONE', ( #66 ), #126, .F. ) ;
#226 = DIRECTION ( 'NONE',  ( -0.000000000000000000, -0.000000000000000000, -1.000000000000000000 ) ) ;
#227 = CARTESIAN_POINT ( 'NONE',  ( -2.600000000000000089, 0.000000000000000000, 3.000000000000000000 ) ) ;
#228 = DIRECTION ( 'NONE',  ( 1.000000000000000000, 0.000000000000000000, -0.000000000000000000 ) ) ;
#229 = PERSON_AND_ORGANIZATION ( #41, #49 ) ;
#230 = EDGE_CURVE ( 'NONE', #36, #157, #76, .T. ) ;
#231 = PERSON_AND_ORGANIZATION ( #41, #49 ) ;
#232 = LOCAL_TIME ( 19, 44, 48.00000000000000000, #163 ) ;
#233 = EDGE_CURVE ( 'NONE', #158, #117, #181, .T. ) ;
#234 = ORIENTED_EDGE ( 'NONE', *, *, #61, .T. ) ;
#235 = EDGE_LOOP ( 'NONE', ( #81, #137, #101, #234 ) ) ;
#236 = FACE_OUTER_BOUND ( 'NONE', #56, .T. ) ;
#237 = AXIS2_PLACEMENT_3D ( 'NONE', #79, #60, #139 ) ;
#238 = ORIENTED_EDGE ( 'NONE', *, *, #86, .T. ) ;
#239 = ORIENTED_EDGE ( 'NONE', *, *, #230, .F. ) ;
#240 = DIRECTION ( 'NONE',  ( 1.000000000000000000, 0.000000000000000000, 0.000000000000000000 ) ) ;
#241 = CC_DESIGN_SECURITY_CLASSIFICATION ( #150, ( #220 ) ) ;
#242 = ADVANCED_FACE ( 'NONE', ( #167, #12 ), #74, .T. ) ;
#243 = CARTESIAN_POINT ( 'NONE',  ( 5.000000000000000000, 6.123233995736766282E-16, 0.000000000000000000 ) ) ;
#244 = AXIS2_PLACEMENT_3D ( 'NONE', #145, #23, #184 ) ;
#245 = CARTESIAN_POINT ( 'NONE',  ( 0.000000000000000000, 0.000000000000000000, 403.0000000000000000 ) ) ;
#246 = COORDINATED_UNIVERSAL_TIME_OFFSET ( 1, 0, .AHEAD. ) ;
#247 = CIRCLE ( 'NONE', #21, 5.000000000000000000 ) ;
#248 = CARTESIAN_POINT ( 'NONE',  ( 0.000000000000000000, 0.000000000000000000, 403.0000000000000000 ) ) ;
#249 = APPROVAL_DATE_TIME ( #94, #54 ) ;
#250 = CC_DESIGN_DATE_AND_TIME_ASSIGNMENT ( #28, #127, ( #150 ) ) ;
#251 = DIRECTION ( 'NONE',  ( 1.000000000000000000, 0.000000000000000000, 0.000000000000000000 ) ) ;
#252 = CC_DESIGN_PERSON_AND_ORGANIZATION_ASSIGNMENT ( #229, #95, ( #33 ) ) ;
#253 = ORIENTED_EDGE ( 'NONE', *, *, #132, .F. ) ;
#254 = EDGE_CURVE ( 'NONE', #117, #158, #119, .T. ) ;
#255 = VERTEX_POINT ( 'NONE', #189 ) ;
ENDSEC;
END-ISO-10303-21;
